If you are searching for Back Home ukulele chords, you already come to the right site.
You can play versatile instrument Back Home using ukulele or guitar.
This song by Golden Earring can also be played by that instruments.
=

Back Home chords has rhythm and included in Golden Earring (Wall of Dolls) (1970) album.
You can also get another musical style, including jazz ukulele chords, country music ukulele chords, pop ukulele chords, world music ukulele chords, and rock ukulele chords here.

Back Home by Golden Earring Ukulele Chords

Intro:
A – C/A 4x
A [-]- [Dadd9/A]C/A – A [-]- [C/A]Dadd9/A – C/A 3x

Goin’ back right through the city [-]
Through the country, rivers so pret – ty
People wonder why I’m going back home [-]
Just the place where I belong

Chorus:
Back home, [-]
Back home, [-]
Back home,
Back home

Well I’m a round the world rambler
Just a fortune gambler
It’s always good to be back home [(A)]
Well I’m a round the world rambler
Just a fortune gambler
It’s always good to be back home

Break:
A – C/A – A – Dadd9/A – C/A 2x

’round and ’round, the world goes ’round [-]
Got my friends in every town [-]
From border to border, every place I’ve been [-]
But I’ve gotta be back if you know what I mean

Chorus:
Back home, [-]
Back home, [-]
Back home,
Back home

Well I’m a round the world rambler
Just a fortune gambler
It’s always good to be back home [(A)]
Well I’m a round the world rambler
Just a fortune gambler
It’s always good to be back home

Outro
A – G6/A – A – G6/A – A – C/A 3x
[-] [Em7/D] [-] [-] [Em7/D] [-] [-]
[-] [Em7/D] [-] [-] [Em7/D] [-] [-]

A – G6/A – A – G6/A – A – C/A –
A – G6/A – A – G6/A – A – G –

C – A / 3x
[-]
[//]

To play the most songs, including Back Home by Golden Earring by ukulele, the most crucial basic ukulele chords to learn are C chord, D chord, G chord, and Em chord.
These set you up to play a ton of songs, and each of them is easy to learn.

If you are looking for Why Do I ukulele chords, you’ve come to the right site.
You can play versatile instrument Why Do I using ukulele or guitar.
This song by Golden Earring can also be played by that instruments.
=

Why Do I chords has rhythm and included in The Hole (1986) album.
You can also get other musical genres, including jazz ukulele chords, country music ukulele chords, pop ukulele chords, world music ukulele chords, and rock ukulele chords here.

Why Do I by Golden Earring Ukulele Chords


Intro: Dsus4 D A7sus4 A9 Em Em7 A7sus4 (2x)

We swing high we swing low never worry ’bout a dull moment
You’re mine I’m yours We fight while we know that we shouldn’t
Ten dollars ten times on sale to the highest bidder
Ten dollars ten times is the price of love considered
You’re right I’m wrong you always knew a good thing in the first place
One sundown one moon-down one hole in a sky blue ceiling
Ten dollars ten times ev’ry time you hol

To play the most songs, including Why Do I by Golden Earring by ukulele, the most crucial basic ukulele chords to learn are C chord, D chord, G chord, and Em chord.
These set you up to play a a lot of songs, and each of them is easy to master.

If you are looking for Another 45 Miles ukulele chords, you’ve visit to the right place.
You can play versatile instrument Another 45 Miles using ukulele or guitar.
This song by Golden Earring can also be played by that instruments.
=

Another 45 Miles chords has rhythm and included in album.
You can also get other musical style, including jazz ukulele chords, country music ukulele chords, pop ukulele chords, world music ukulele chords, and rock ukulele chords here.

Another 45 Miles by Golden Earring Ukulele Chords


G 320003
G/F# 2×0003
D xx0232
D7 xx0212
Em 022000
Dsus4 xx0233
Am x02210
A x02220
G7 x-x-9-10-8-7 (of 320001)
C 8-10-10-9-8-8 (of x32010)

Guitar 1 just plays the chords G G/F# Em that two times


e||--------------|----------------------|----------------------||
B||--------------|-12-12-10-8-10-12-8-5-|-12-12-10-8-10-12-8-5-||
G||--------------|----------------------|----------------------|| Guitar 2
D||--------------|----------------------|----------------------||
A||--------------|----------------------|----------------------||
E||--------------|----------------------|----------------------||

Verse:

Here [G/F#]comes the night, a veil [G/F#]over the light
In the distance some shadows of the clouds in the sky
I’ve got to get home to my child, my wife

Here [G/F#]comes the night, Im scared to death, got to get me a ride
It looks like the road is swallowing me up, got to hurry home
Don’t dare to look back, Blueville is straight ah[—]ead

Chorus:

Another 45 [G/F#]miles to go, another 45 [G/F#]miles before I’m home
I wish the sunlight was burning in my eyes
Instead of shades black faces of the sky
Another 45 [G/F#]miles to go, another 45 [G/F#]miles before I’m home
I wish I could pay the sun to run
Then I had some more time with my wife and my son

play intro again
[)]


e||-----------------------|----------------------||
B||-12-10-8-10-12-8-5-3-5-|-12-10-8-10-12-10-5-8-||
G||-----------------------|----------------------|| guitar 2
D||-----------------------|----------------------||
A||-----------------------|----------------------||
E||-----------------------|----------------------||

Verse:

Clouds [G/F#]in the sky, gathering [G/F#]for a fight
Chasing their prey, ’till it can’t go on
I mend my pace ’cause my bride is waiting home

Here [G/F#]comes the night, Im scared to death, got to get me a ride
It looks like the road is swallowing me up, got to hurry home
Don’t dare to look back, Blueville is straight ah[—]ead

Chorus:
( Tab from: http://www.guitartabs.cc/tabs/g/golden_earring/another_45_miles_tab.html )
Another 45 [G/F#]miles to go, another 45 [G/F#]miles before I’m home
I wish the sunlight was burning in my eyes
Instead of shades black faces of the sky
Another 45 [G/F#]miles to go, another 45 [G/F#]miles before I’m home
I wish I could pay the sun to run
Then I had some more time with my wife and my son

Solo:

[G/F#] [G/F#]


e||-3-------3----0---------|-3------3-----0--------|
B||-0-------0----0---------|-0------0-----0--------|
G||-0-------0----0---------|-0------0-----0--------|
D||-0-------0----2---------|-0------0-----2--------|
A||-2-------x----2---------|-2------x-----2--------|
E||-3-------2----0---------|-3------2-----0--------|

[)]


e||-----------------------|-------------------13~--|
B||-12-10-8-10-12-8-5-3-5-|-12-10-8-10-12-8-5------|
G||-----------------------|------------------------|
D||-----------------------|------------------------|
A||-----------------------|------------------------|
E||-----------------------|------------------------|


e||-------0-0-0-0-3-3-3-3-3-3-2-2-2-2-2------------|
B||-------1-1-1-1-0-0-0-0-0-0-3-3-3-3-3------------|
G||-------2-2-2-2-0-0-0-0-0-0-2-2-2-2-2------------|
D||-------2-2-2-2-0-0-0-0-0-0-0-0-0-0-0------------|
A||-------0-0-0-0-2-2-2-2-2-2----------------------|
E||---------------3-3-3-3-3-3----------------------|

[)]


e||-10/12/13~- 13-12-12-12-12-10-10-12-10----------|
B||------------------------------------------------|
G||------------------------------------------------|
D||------------------------------------------------|
A||------------------------------------------------|
E||------------------------------------------------|


e||-------0-0-0-0-3-3-3-3-3-3-2-2-2-2-2------------|
B||-------1-1-1-1-0-0-0-0-0-0-3-3-3-3-3------------|
G||-------2-2-2-2-0-0-0-0-0-0-2-2-2-2-2------------|
D||-------2-2-2-2-0-0-0-0-0-0-0-0-0-0-0------------|
A||-------0-0-0-0-2-2-2-2-2-2----------------------|
E||---------------3-3-3-3-3-3----------------------|

[)]


e||-10/12/13-13-15-12-12-10-10-12-10---------------|
B||------------------------------------------------|
G||------------------------------------------------|
D||------------------------------------------------|
A||------------------------------------------------|
E||------------------------------------------------|

Refrein:

Another 45 [G/F#]miles to go, another 45 [G/F#]miles before I’m home
I wish the sunlight was burning in my eyes
Instead of shades black faces of the sky
Another 45 [G/F#]miles to go, another 45 [G/F#]miles before I’m home
I wish I could pay the sun to run
Then I had some more time with my wife and my son

| G | G/F# | Em | —

To play the most songs, including Another 45 Miles by Golden Earring by ukulele, the most crucial basic ukulele chords to learn are C chord, D chord, G chord, and Em chord.
These set you up to play a a lot of songs, and each of them is easy to master.

If you are looking for Johnny Make Believe ukulele chords, you already come to the right site.
You can play versatile instrument Johnny Make Believe using ukulele or guitar.
This song by Golden Earring can also be played by that instruments.
=

Johnny Make Believe chords has rhythm and included in Face It (1994) album.
You can also find other musical genres, including jazz ukulele chords, country music ukulele chords, pop ukulele chords, world music ukulele chords, and rock ukulele chords here.

Johnny Make Believe by Golden Earring Ukulele Chords


Tune down one step (DGCFAd)

Chords:
Em – 075000 F – 133211 D – xx0232
G – 320003 C – x32010 D7 – xx0212
Am – x02210 Bm – 244322 G7 – 320001

Intro:

d—————- —–3——– —————— —–3——–
A—-8—7-5-5— ————– ——8—7-5—– ————–
F—-0—0-0-0-0- —0——0— —————-0- —0——0—
C—————- -0——0—0- ————–0— -0——0—0-
G—————- ————– -/7—–7——— ————–
D–0—0——— -3———— —-0————- -3————

d—————— —————- ————— ———-0-0-0-
A——8—7-5—– ——-

To play the most songs, including Johnny Make Believe by Golden Earring by ukulele, the most important basic ukulele chords to learn are C chord, D chord, G chord, and Em chord.
These set you up to play a a lot of songs, and each of them is easy to learn.

If you are looking for Hold Me Now ukulele chords, you’ve visit to the right site.
You can play versatile instrument Hold Me Now using ukulele or guitar.
This song by Golden Earring can also be played by that instruments.
=

Hold Me Now chords has rhythm and included in Face It (1994) album.
You can also find another musical style, including jazz ukulele chords, country music ukulele chords, pop ukulele chords, world music ukulele chords, and rock ukulele chords here.

Hold Me Now by Golden Earring Ukulele Chords

Date: Tue, 20 Jan 1998 21:49:16 +0100
From: dux
Subject: TAB: Hold me now (Golden Earring)

THE GOLDEN EARRING
HOLD ME NOW

I’ve figured out the text just by listening to the song
since I don’t have the album with the lyrics in it, so
if somebody has the right lyrics and the solo to this
song then please mail them to me at dux@dds.nl

Also, if you have any comments or questions you can mail me!

INTRO:

2x


e -----------0--------------------0-----------------------
B ---------0---0----------------0---0---------------------
G -------0-------0------------0-------0-------------------
D -----2-----------2--------2-----------0-----------------
A -------------------2p0------------------0h2-------------
E -0---------------------2--------------------------------

VERSE’S:


e ----------0------------------0------------------3-------------2h3p2------
B --------0---0--------------0---0--------------0---0---------3-------3----
G ------0-------0----------0-------0----------0-------0-----2--------------
D ----2----------2-------2-----------2------0-----------0-0----------------
A ----------------2p0------------------------------------------------------
E -0------------------2----------------0h3---------------------------------


e ----------3-------------2-2--------0-0--0-0--0------------------------
B --------0---0---------3-----3------2-2--3-3--2------------------------
G ------0-------0-----2---------2----2-2--2-2--2------------------------
D ----0-----------0-0-------------0--2-2--2-2--2------------------------
A -----------------------------------0-0--0-0--0------------------------
E -3-----------------------------------------------3-2------------------

VERSE 1:
Dreaming about the future
Drinking on the past
Thinking ’bout the things that bin forgotten

Trying to remember and
trying to forget
That my life is empty without you

CHORUS:
Sayonara, close your eyes now little girl
cause tomorrow has an hold onto the world
Hold me now, you got to guide me through the night
Hold me now, make my eyes stop all turn warm

VERSE 2:
Talking about our friends and love
our friends with broken hearts
The ones I always keep forgiving
A funny angel shout that boys…..
tonight I wanna keep on living

CHORUS:
For your love, close your eyes now little girl
cause tomorrow has an hold onto the world
Hold me now, you got to guide me through the night
Hold me now, and make it last forever
Hold me now, you got a conscious for a while (?)

SOLO

Hold me now, you got to guide me through the night
Hold me now, and make it last forever
Hold me now, you got a conscious for a while (?)
Hold me now, make my eyes stop all turn warm

To play the this songs, including Hold Me Now by Golden Earring by ukulele, the most important basic ukulele chords to learn are C chord, D chord, G chord, and Em chord.
These set you up to play a a lot of songs, and each of them is easy to master.

If you are searching for When the Lady Smiles ukulele chords, you have come to the best site.
You can play versatile instrument When the Lady Smiles using ukulele or guitar.
This song by Golden Earring can also be played by that instruments.
=

When the Lady Smiles chords has rhythm and included in N.E.W.S. (1984) album.
You can also find another musical genres, including jazz ukulele chords, country music ukulele chords, pop ukulele chords, world music ukulele chords, and rock ukulele chords here.

When the Lady Smiles by Golden Earring Ukulele Chords


Golden Earring – When the lady smiles

Chords:
B 799877
E 076xxx

E! 022100 (drum hit)
E4 022200
G#m! 466444 (drum hit)

C# x46664
C#m x46654
B/Bb 69xxxx

(Intro)
Riff1 (2x)

Riff1


e-0--0--0--0--0--0--0--0--0--0--0--0--0--0--0--0--0--0--0--0--0--0--0--0--0--0--|
B-0--0--0--0--0--0--0--0--0--0--0--0--0--0--0--0--0--0--0--0--0--0--0--0--0--0--|
G-11-11-11-11-11-11-11-9--9--9--9--9--9--9--7--7--7--7--7--7--7--7--7--7--7--7--|
D-9--9--9--9--9--9--9--7--7--7--7--7--7--7--5--5--5--5--5--5--5--5--5--5--5--5--|
A-------------------------------------------------------------------------------|
E-------------------------------------------------------------------------------|

Riff2a


e---------------------------|
B---------------------------|
G-------8h9-----11----9-8-9-|
D-----9---------------------|
A---9---------9-----9-------|
E-7---------7-----7----7-7--|

Riff2b


e-------------------------------|
B-------------------------------|
G-------8h9-----11-----9----8-9-|
D-----9------------------11-----|
A---9---------9------9----------|
E-7---------7------7------------|


Riff2c


e---------------------------|
B---------------------------|
G-------3-3-4-4--6-4-3---3--|
D-----4----------------6----|
A---4-------4---------------|
E-2--------2--2----------2--|


B B E F#
When the lady smiles___ you know it drives me wild__
B E F#
Her lips are warm__ and resourceful__
B E F#
When her fingertips go drawing__ circles in the night
B E F#
And the mood is soft and sensual_ hhhheeyy
and I love it, yeah, I love_ it
B E F#
It’s the answer_ to all my dreams everytime it feels like

(Bridge)
E! E4 E4 E E! E4 E4 E
The earth is shaking, it doesn’t matter
G#m! G#4 G#4 G#m G#m! G#4 G#4 G#m
A glass is falling, I hear it shatter
E! E4 E4 E E! E4 E4 E
Maybe it’s raining, faster and faster
G#m! G#4 G#4 G#m
Shadow dancing

Together whoo-oh, I___, I’m betting on the game__ of_ love__
Whoo-oh-oh-oh, I___, I’m betting that the love is gonna come out
When the walls no longer shout back at me and I’m feelin’ proud

When the la__dy_ smiles__, she holds_ me in her hand__
As a matter of fact, she can always let me down__
But [(G#5]when [B5)]the la__dy__ smiles, I can’t resist her call__,
As a matter of fact, I don’t resist at all__
‘Cause I’m walkin’ on clouds, and she’s lea__ding the way_

B B E F#
My friends tell me: “she’s the beast inside__ your paradise_”
B E F#
I guess you’ve heard it all__ before_
B E F#
A fallen angel that_ has_ got you hypnotized
B E F#
And that always__ needs_ some_ more_ hhhuh
and I love it, yeah, I love it
B E F#
She’s done nothing to mislead me__ ‘Cause everytime we meet

(Bridge)
E! E4 E4 E E! E4 E4 E
The earth is shaking, it doesn’t matter
G#m! G#4 G#4 G#m G#m! G#4 G#4 G#m
A glass is falling, I hear it shatter
E! E4 E4 E E! E4 E4 E
Maybe it’s raining, faster and faster
G#m! G#4 G#4 G#m
Shadow dancing
Together whoo-oh, I___, I’m betting on the game__ of_ love__
Whoo-oh-oh-oh, I___, I’m betting that the love is gonna come out
When the walls no longer shout back at me and I’m feelin’ proud

When the la__dy_ smiles__, she holds_ me in her hand__
As a matter of fact, she can always let me down__
But when the la__dy__ smiles, I can’t resist her call__,
As a matter of fact, I don’t resist at all__
‘Cause I’m walkin’ on clouds, and she’s lea__ding____

Riff3 ‘oh noo’


e------7-7-7-7--7-7-|--------------------------|
B------9-9-9-7--9-9-|-----11111111111111119-9--|
G------9-9-9-9--9-9-|-----11111111111111111111-|
D------9-9-9-9--9-9-|-----11111111111111111111-|
A------7-7-7-7--7-7-|-----9-9-9-9-9-9-9-9-9-9--|
E-------------------|--------------------------|


(Solo)

oh nooo oh noo oh [////////]no___
___________
[B/Bb]



[B/Bb]


[B/Bb]
Solo


e---------------------------|
B---------------------------|
G---------------------------|
D------------------1--------|
A-----2~~~-------2----4~~~--|
E-2-4--------2-4------------|


e------------------------|
B------------------------|
G------------------------|
D------------------------|
A-2~~~-------2---2-1~~~--|
E--------2-4---4---------|


e----------------------------------|
B----------------------------------|
G----------------------------------|
D-----------------------1--1-------|
A-----2-4~~~--------2-4-------2~~~-|
E-2-4-----------2-4----------------|


e------------------------------------|
B------------------------------------|
G------------------------------------|
D---------1--1--------1--------------|
A-----2-4-------4~~~----4-2---2~~~~--|
E-2-4-----------------------4--------|


e-----------------------------------|
B-----------------------------------|
G-----------------------------------|
D-----------------------------------|
A---2-2---2--2--1-----4b6-2---2~~~--|
E-4-----4-------------------4-------|


e-----------------------------------------|
B-----------------------------------------|
G-----------------------------------------|
D----------1--1---------------------------|
A------2-4------4~~~~--4b6-2---2--2-------|
E----4-----------------------4------4-----|

[B/Bb]


e-------------------------------------------------|
B-------------------------------------------------|
G-------------------------------------------------|
D-------------------------------------------------|
A-----2-----------2-------2------------------2----|
E-2-4---4-2--2--4-----2-4---4-0~~~-------0-2---4--|


e-------------------------------------|
B-------------------------------------|
G-------------------------------------|
D-1--1-------1------------------------|
A-------4------4-2---2-2-----2-22-2---|
E------------------4-------4-----4----|


e--------------------------------------------------------------------22-|
B--------------------------------------------------------------2/4------|
G------1~---4~--1h4p1h4p1~-1-4--1-44-1---1-44-1---1-44-1--4--1----------|
D-4~--------------------------------------------------------------------|
A-----------------------------------------------------------------------|
E-----------------------------------------------------------------------|

[B/Bb]

To play the most songs, including When the Lady Smiles by Golden Earring by ukulele, the most important basic ukulele chords to learn are C chord, D chord, G chord, and Em chord.
These set you up to play a many of songs, and each of them is easy to master.

If you are searching for Hold Me Now ukulele chords, you’ve come to the best site.
You can play versatile instrument Hold Me Now using ukulele or guitar.
This song by Golden Earring can also be played by that instruments.
=

Hold Me Now chords has rhythm and included in Face It (1994) album.
You can also find other musical style, including jazz ukulele chords, country music ukulele chords, pop ukulele chords, world music ukulele chords, and rock ukulele chords here.

Hold Me Now by Golden Earring Ukulele Chords


Date: Tue, 20 Jan 1998 21:49:16 +0100
From: dux
Subject: TAB: Hold me now (Golden Earring)

THE GOLDEN EARRING
HOLD ME NOW

I’ve figured out the text just by listening to the song
since I don’t have the album with the lyrics in it, so
if somebody has the right lyrics and the solo to this
song then please mail them to me at dux@dds.nl

Also, if you have any comments or questions you can mail me!

INTRO:

2x


e -----------0--------------------0-----------------------
B ---------0---0----------------0---0---------------------
G -------0-------0------------0-------0-------------------
D -----2-----------2--------2-----------0-----------------
A -------------------2p0------------------0h2-------------
E -0---------------------2--------------------------------

VERSE’S:


e ----------0------------------0------------------3-------------2h3p2------
B --------0---0--------------0---0--------------0---0---------3-------3----
G ------0-------0----------0-------0----------0-------0-----2--------------
D ----2----------2-------2-----------2------0-----------0-0----------------
A ----------------2p0------------------------------------------------------
E -0------------------2----------------0h3---------------------------------


e ----------3-------------2-2--------0-0--0-0--0------------------------
B --------0---0---------3-----3------2-2--3-3--2------------------------
G ------0-------0-----2---------2----2-2--2-2--2------------------------
D ----0-----------0-0-------------0--2-2--2-2--2------------------------
A -----------------------------------0-0--0-0--0------------------------
E -3-----------------------------------------------3-2------------------

VERSE 1:
Dreaming about the future
Drinking on the past
Thinking ’bout the things that bin forgotten

Trying to remember and
trying to forget
That my life is empty without you

CHORUS:
Sayonara, close your eyes now little girl
cause tomorrow has an hold onto the world
Hold me now, you got to guide me through the night
Hold me now, make my eyes stop all turn warm

VERSE 2:
Talking about our friends and love
our friends with broken hearts
The ones I always keep forgiving
A funny angel shout that boys…..
tonight I wanna keep on living

CHORUS:
For your love, close your eyes now little girl
cause tomorrow has an hold onto the world
Hold me now, you got to guide me through the night
Hold me now, and make it last forever
Hold me now, you got a conscious for a while (?)

SOLO

Hold me now, you got to guide me through the night
Hold me now, and make it last forever
Hold me now, you got a conscious for a while (?)
Hold me now, make my eyes stop all turn warm

To play the most songs, including Hold Me Now by Golden Earring by ukulele, the most crucial basic ukulele chords to learn are C chord, D chord, G chord, and Em chord.
These set you up to play a ton of songs, and each of them is easy to master.