If you are searching for Unsound ukulele chords, you’ve come to the best place.
You can play versatile instrument Unsound using ukulele or guitar.
This song by Headstones can also be played by that instruments.
=

Unsound chords has rhythm and included in Teeth & Tissue (1995) album.
You can also find another musical genres, including jazz ukulele chords, country music ukulele chords, pop ukulele chords, world music ukulele chords, and rock ukulele chords here.

Unsound by Headstones Ukulele Chords


This song rocks and I love when a great canadian band has an awesome
song.

I don’t play bass but I got my guitar teacher to show me the bassline
and the guitar comes right off that.

This is from memory (I don’t have the CD with me)

Intro: (Bass)

|–6-6-6|—44–4-|–7-7-7|—2p0h2–|
|—–7-|–5—-5–|—–7-|–2——-|
|——-|———-|5——|0———|
|5——|3———|——-|———-|

|–6-6-6|—44–4-|–7-7-7|—22—-|
|—–7-|–5—-5–|—–7-|–2——-|
|——-|———-|5——|0———|
|5——|3———|——-|———-|

means a quick rest

If this seems too complicated, it really isn’t.
It’s made from these four chords:
A (5X76)
G (3X54)
D5 (X577)
A5 (X022)

The guitar part is simple.
All it is is the same four chords:
A (5776XX)
G (3554XX)
D5 (X577XX)
A5 (X022XX)

Send corrections to r_rhoads@hotmail.com
Transcribed By Denis Hammersteadt and Neil Fitzpatrick(well a little
bit)

Neil Fitzpatrick

If anyone knows Untitled by Collective Soul please mail me or at least
post it.

To play the this songs, including Unsound by Headstones by ukulele, the most important basic ukulele chords to learn are C chord, D chord, G chord, and Em chord.
These set you up to play a a lot of songs, and each of them is easy to master.

If you are looking for Tiny Teddy ukulele chords, you have come to the best site.
You can play versatile instrument Tiny Teddy using ukulele or guitar.
This song by Headstones can also be played by that instruments.
=

Tiny Teddy chords has rhythm and included in The Oracle of Hi-Fi (2002) album.
You can also get other musical genres, including jazz ukulele chords, country music ukulele chords, pop ukulele chords, world music ukulele chords, and rock ukulele chords here.

Tiny Teddy by Headstones Ukulele Chords


CD: Oracle of Hi-Fi
Tabber: Mitchell (Mitchell_J@hotmail.com)
Tuning: Down a half step (eb Bb Gb Db Ab Eb)

This is the first Headstones tune I know for sure is in E flat.
The Tiny Teddy tab should be very accurate, one of the best off Oracle!

Intro:


eb ---------------------------------------------------------
Bb ---------------------------------------------------------
Gb ---------------------------------------------------------
Db -9-9--9-9-9-9--4-4--4-4-4-4--2-2--2-2-2-2--9-9--9-9-9-9--
Ab -9-9--9-9-9-9--4-4--4-4-4-4--2-2--2-2-2-2--9-9--9-9-9-9--
Eb -7-7--7-7-7-7--2-2--2-2-2-2--0-0--0-0-0-0--7-7--7-7-7-7--

After that:


eb ---------------------------------------------------------------------
Bb ---------------------------------------------------------------------
Gb ---------------------------------------------------------------------
Db -9-9-9-9-9-9-9-9--4-4-4-4-4-4-4-4--2-2-2-2-2-2-2-2--9-9-9-9-9-9-9-9--
Ab -9-9-9-9-9-9-9-9--4-4-4-4-4-4-4-4--2-2-2-2-2-2-2-2--9-9-9-9-9-9-9-9--
Eb -7-7-7-7-7-7-7-7--2-2-2-2-2-2-2-2--0-0-0-0-0-0-0-0--7-7-7-7-7-7-7-7--

Pre-chorus:


eb ---------------------------------------------------------------
Bb ---------------------------------------------------------------
Gb ---------------------------------------------------------------
Db -7-7-7-7-7-7-7-7-7--9-9-7-9--5-5-5-5-5-5-5-5--4-4-4-4-4-4-4-4--
Ab -7-7-7-7-7-7-7-7-7--9-9-7-9--5-5-5-5-5-5-5-5--4-4-4-4-4-4-4-4--
Eb -5-5-5-5-5-5-5-5-5--7-7-7-7--3-3-3-3-3-3-3-3--2-2-2-2-2-2-2-2--

Chorus:


eb -----------------------------------------------------------------------------
Bb -----------------------------------------------------------------------------
Gb ------------------11-11-11-11-11-11-11-11--9-9-9-9-9-9-9-9-------------------
Db -9-9-9-9-9-9-9-9--11-11-11-11-11-11-11-11--9-9-9-9-9-9-9-9--9-9-9-9-9-9-9-9--
Ab -9-9-9-9-9-9-9-9--9--9--9--9--9--9--9--9---7-7-7-7-7-7-7-7--9-9-9-9-9-9-9-9--
Eb -7-7-7-7-7-7-7-7--------------------------------------------7-7-7-7-7-7-7-7--

Post-chorus:


eb -----------------------------------------------------------------
Bb -----------------------------------------------------------------
Gb -9-9--9-9-9-9-------7-7-7-7-7--6-6-6-6-6-6-6-6-------------------
Db -9-9--9-9-9-9--7-7--7-7-7-7-7--6-6-6-6-6-6-6-6--4-4-4-4-4-4-4-4--
Ab -7-7--7-7-7-7--7-7--5-5-5-5-5--4-4-4-4-4-4-4-4--4-4-4-4-4-4-4-4--
Eb ---------------5-5------------------------------2-2-2-2-2-2-2-2--

Verse 2 start:


eb -2-2--2-2-2-2---2-2--2-2-2-2---0-0--0-0-0-0---2-2--2-2-2-2--
Bb -4-4--4-4-4-4---2-2--2-2-2-2---0-0--0-0-0-0---4-4--4-4-4-4--
Gb -4-4--4-4-4-4---3-3--3-3-3-3---1-1--1-1-1-1---4-4--4-4-4-4--
Db -4-4--4-4-4-4---4-4--4-4-4-4---2-2--2-2-2-2---4-4--4-4-4-4--
Ab -------------------------------2-2--2-2-2-2-----------------
Eb ------------------------------------------------------------

Instrumental: the first 6 chords are played are played 8 times


eb -------------------|-------------------------------
Bb -------------------|-------------------------------
Gb -9-----9-----9-----|-------------------------------
Db -9--9--9--9--9--9--|-7-7-7-7-7-7-7-7--9-9--7--9-9--
Ab -7--9--7--9--7--9--|-7-7-7-7-7-7-7-7--9-9--7--9-9--
Eb ----7-----7-----7--|-5-5-5-5-5-5-5-5--7-7--5--7-7--

Chords: D#5 F5 F#5 G#5 A#5 C5 C#5 D#5 F5 Bb F Eb
eb x x x x x x x x x 2 2 0
Bb x x x x x x x x x 4 2 0
Gb x x x x x 6 7 9 11 4 3 1
Ab 2 4 5 7 9 4 5 7 9 x x 2
Eb 0 2 3 5 7 x x x x x x x

Tab originally from http://diehardtabs.tripod.com

To play the this songs, including Tiny Teddy by Headstones by ukulele, the most important basic ukulele chords to learn are C chord, D chord, G chord, and Em chord.
These set you up to play a ton of songs, and each of them is easy to master.

If you are searching for Digits ukulele chords, you have visit to the best site.
You can play versatile instrument Digits using ukulele or guitar.
This song by Headstones can also be played by that instruments.
=

Digits chords has rhythm and included in Smile & Wave (1997) album.
You can also get another musical style, including jazz ukulele chords, country music ukulele chords, pop ukulele chords, world music ukulele chords, and rock ukulele chords here.

Digits by Headstones Ukulele Chords


Date: Wed, 15 Apr 1998 16:48:52 -0600
From: The Hansen Family
Subject: tab: h/headstones/digits.tab

TAB FOR DIGITS BY The HEADSTONES
FROM THE ALBUM: SMILE AND WAVE
TRANSCRIBED BY MATTHEW HANSEN

This is a cool song from an awsome album. This tab
is far from perfect but it’s a start.

Intro Riff:


E-------------------------------------------|
B-------------------------------------------|
G---6---------------4---6-6---------------4-|
D---6---2---4---6---2---6-6---2---4---6---4-|
A---4---2---4---6---2---4-4---2---4---6---2-|
E-------0---2---4-------------0---2---4-----|

For the verse play the C#m chord below with randow string scrapes
this is probably wrong, but I couldn’t find anything better.
Half way Through you hit an A5 chord
C#m scrapes A5


-4----x----------|
-5----x----------|
-6----x-------2--|
-6----x-------2--|
-4----x-------0--|
------x----------|

Pre chorus(no two snowflakes are alike…)
You play A5 about 8 times, G5 4 and D5 like 10 or something(fast)


e-------------------|
B-------------------|
G-----2---------7---|
D-----2----5----7---|
A-----0----5----5---|
E----------3--------|

chorus(?) riff:


E----------------------------|
B----------------------------| h - hammer on
G-------------------------4--|
D--------------------4h6-----|
A-----4--4--2--4--4----------|
E--0-------------------------|

Lyrics:

INTRO 2X

shame on you shame on you

VERSE 1:

She’s got the numbers man
I got the digits
Everybody knows there own
Pulses Quickened

Don’t know the essence well they’ve
Gone and made a mess

Jimmy wanted pistols but he
Shot em when he got em

Pre-Chorus:
No 2 snow flakes are alike
And niether are the seconds

CHORUS 4X(no lyrics)

VERSE 2:

Be happy when we’re in public
Don’t know how we ever got by
I’ve got it now I’m damaged
I’m a discontinued line

Too busy gettin sick to close
Anybody can see the flaws

Billy wanted depth
Maybe shoulda checked his pockets

PRE CHORUS

CHORUS:
yeah

SOLO/BRIDGE(haven’t figured it out yet)

VERSE 3:
same as first verse, except instead of playing
the C#m chord, play the intro instead.

PRECHORUS

CHORUS:
yeah

Outro:
play the chorus riff, just a little faster

That’s about it. If anyone has the more
correct/complete version, or any other cool tabs
(especially Headstones), post em.

To play the this songs, including Digits by Headstones by ukulele, the most important basic ukulele chords to learn are C chord, D chord, G chord, and Em chord.
These set you up to play a a lot of songs, and each of them is easy to learn.

If you are searching for Absolutely ukulele chords, you have visit to the best place.
You can play versatile instrument Absolutely using ukulele or guitar.
This song by Headstones can also be played by that instruments.
=

Absolutely chords has rhythm and included in Picture of Health (1993) album.
You can also get another musical genres, including jazz ukulele chords, country music ukulele chords, pop ukulele chords, world music ukulele chords, and rock ukulele chords here.

Absolutely by Headstones Ukulele Chords


Date: Tue, 07 Apr 1998 17:06:49 -0600
From: The Hansen Family
Subject: TAB: hheadstonesabsolutely.tab

tab for Absolutely by the Headstones
from the album Picture of Health
transcribed by Matthew Hansen

intro and chorus riff:

e—————————————–|
B—————————————–|
G—–4–4-4—-7-7-7———————|
D—–4–4-4—-7-7-7—-7—-2-2-2-2-2-2-|
A—–2–2-2—-5-5-5—-7—-2-2-2-2-2-2-|
E————————5—-0-0-0-0-0-0-|
———————————————|
———————————————|
—-4–4-4—-7-7-7—-11—-9-9-9—7—9-9-|
—-4–4-4—-7-7-7—-11—-9-9-9—7—7-7-|
—-2–2-2—-5-5-5—-9—–7-7-7—5—7-7-|
———————————————|

verse: let this chord (B5) ring:

e—–
[B—–]
[G—4-]
[D—4-]
[A—2-]
[E—–]

other verse riff( ..to a sea of belligerance..)

e————————————–|
B————————————–|
G——-4————–9-9-9-9-9-9-9-9-|
D—–4———-7—–7-7-7-7-7-7-7-7-|
A—2———-7——-7-7-7-7-7-7-7-7-|
E————5————————-|

bridge riff

e————————————————|
B————————————————|
G————————————————|
D—77777777—-22222222—-44444444—-77777777-|
A—77777777—-22222222—-44444444—-77777777-|
E—55555555—-00000000—-22222222—-55555555-|
——————————————————————|
——————————————————————|
——————————————————————|
—-77777777—-22222222—–4444444444444444

To play the this songs, including Absolutely by Headstones by ukulele, the most crucial basic ukulele chords to learn are C chord, D chord, G chord, and Em chord.
These set you up to play a many of songs, and each of them is easy to master.

If you are looking for Long Way to Neverland ukulele chords, you’ve come to the best site.
You can play versatile instrument Long Way to Neverland using ukulele or guitar.
This song by Headstones can also be played by that instruments.
=

Long Way to Neverland chords has rhythm and included in Love + Fury (2013) album.
You can also get other musical genres, including jazz ukulele chords, country music ukulele chords, pop ukulele chords, world music ukulele chords, and rock ukulele chords here.

Long Way to Neverland by Headstones Ukulele Chords


Long way to neverland

(Play the note then upstrum), my first crack posting, not sure if lyrics are right,
please correct as required.

[(E]Bre[-]ak i[-]t [A)]down with a color lens
Gotta long lens comin round
With a bombed out girl scout
Laying south bound on the ground

Some here I don’t get, some here I don’t see
Go boys, comin down, And it’s on to the fckin teeth

[(D]It'[-]s [A)]a l[(E]ong[-] way[-] t[A)]o neverland
And I’m dying to shoot em down, keep em down for good
Yeah I might live dual lives
But here I am 20 year to the day Like I knew I would

[(E]Get[-]tin [-]st[A)]oned on a hot sand
Put on a call to Carlene
Get a bottle of drop down all the images from the stream
Do yourself a favor when you smell fear and when you run
Turn around and face it all
Just beat em to the fckin punch

[(D]It'[-]s [A)]a l[(E]ong[-] way[-] t[A)]o neverland
I’m dying to shoot em down and keep em down for good
Yeah we might live dual lives
But Here I am 20 years to the day Like I thought I would
It’s a long way to neverland
I’m dying to shoot em down and keep em down for good

YEAH

[(E]Kne[-]el d[-]ow[A)]n at the underground
With a science fictious start
Gotta have it all my way
So we’re both done playin parts
Gotta soul and a string of whole
Poison tear drops in the sea
Grinded sands in an hour glass
Came down to him and me

[(D]It'[-]s [A)]a l[(E]ong[-] way[-] t[A)]o neverland
I’m dying to shoot em down and keep em down for good
Yeah we might live dual lives
But Here I am 20 years to the day Like I knew I would
It’s a long way to neverland
I’m dying to shoot em down and keep em down for good
Keep em down for good, keep em down for good

(Bb – A – E) x 5

[(E]Bre[-]ak i[-]t [A)]down with a color lens
Gotta long lens comin down
Got a bombed out girl scout
Laying south bound on the ground
Some here I don’t get
some here I don’t see
Nothin left to see here, but the waves out on the beach.

To play the most songs, including Long Way to Neverland by Headstones by ukulele, the most important basic ukulele chords to learn are C chord, D chord, G chord, and Em chord.
These set you up to play a ton of songs, and each of them is easy to learn.

If you are looking for And ukulele chords, you have visit to the best place.
You can play versatile instrument And using ukulele or guitar.
This song by Headstones can also be played by that instruments.
=

And chords has rhythm and included in Smile & Wave (1997) album.
You can also find another musical genres, including jazz ukulele chords, country music ukulele chords, pop ukulele chords, world music ukulele chords, and rock ukulele chords here.

And by Headstones Ukulele Chords


Date: Sun, 09 Nov 1997 18:50:24 -0600
From: Bryan Shiffman
To: guitar@olga.net
Subject: Guitar tab – And by the HEadstones

[Riff 1 – Verse riff]


E :---------------------------------------
B :---------------------------------------
G :10-10-10-10--9--9--9--9-9-9-9-9-9-9-9-9
D :10-10-10-10-10-10-10-10-9-9-9-9-9-9-9-9
A :-8--8--8--8-10-10-10-10-7-7-7-7-7-7-7-7
E :-------------8--8--8--8----------------

[Riff 2 – End of Verse (right before the chorus)


E :---------------------------------------
B :---------------------------------------
G :10-10-10-10----------------------------
D :10-10-10-10-10-10-10-10-7-7-7-7-7-7-7-7
A :-8--8--8--8-10-10-10-10-7-7-7-7-7-7-7-7
E :-------------8--8--8--8-5-5-5-5-5-5-5-5

[Riff 3 – Chorus Riff (Let’s not find the weakness…)]


E :-------------------------- -----------------------
B :-------------------------- -----------------------
G :-------------------------- -----------------------
D :-------------------------- -----------------------
A :1-1-1-1---------3-3-3-5--5 5----------------------
E :--------1-1-1-1----------- --5-5-5-5-5-5-5-5------

[Riff 4 – Solo]


E :------------------- ---------------------------------
B :------------------- ----19-19-19-19-18-18-18-18-13---
G :------------------- ---------------------------------
D :------------------- ---------------------------------
A :----5-4----5-7---10 ---------------------------------
E :5------------------ ---------------------------------
E :--------------------------16--16-16
B :19-19-19-19-18-18-18-18------------
G :-----------------------------------
D :-----------------------------------
A :-----------------------------------
E :-----------------------------------
E :16-18-18-18-18-17------------------------- -------------------------
B :------------------18--13-13-13-13--------- -------------------------
G :----------------------------------15-15-15 15-----------------------
D :------------------------------------------ ---14-14-14-14-----------
A :------------------------------------------ -------------------------
E :------------------------------------------ -------------------------

[Riff 5 – Last chorus (Let’s not find the weakness…)]
Comes directly after the solo


E :----------------------------- -----------------------
B :----------------------------- -----------------------
G :3-3-3-3---------5-5-5-7-7-7-7 -----------------------
D :3-3-3-3-3-3-3-3-5-5-5-7-7-7-7 7-7-7-7-7-7-7-7--------
A :1-1-1-1-3-3-3-3-3-3-3-5-5-5-5 7-7-7-7-7-7-7-7--------
E :--------1-1-1-1-------------- 5-5-5-5-5-5-5-5--------

[Riff 6A – End (What good would it do?)]


E :-----------------------------
B :-----------------------------
G :3-3-3-3---------5-5-5-7-7-7-7
D :3-3-3-3-3-3-3-3-5-5-5-7-7-7-7
A :1-1-1-1-3-3-3-3-3-3-3-5-5-5-5
E :--------1-1-1-1--------------

[Riff 6B – End]


E :----------------
B :----------------
G :3-------2-------
D :3---3---2-------
A :1---3---0-------
E :----1-----------

Can we piece it together
Simply want it to work
Right where it’s severed
And we can conserve
Well it holds down neatly
Everything that it serves
It belongs to us now
no longer needs to be nursed

Let’s not find the weakness
push the bruise
What good would it do

It belongs to us now
We can endure
No televisions
No longer needs to be cured
And when we define it
it seems to conclude
It’s right where we find it
It’s right beside you

Let’s not drag out the details salt the wound
Let’s not find the weakness push the bruise
What good would it do

To play the this songs, including And by Headstones by ukulele, the most important basic ukulele chords to learn are C chord, D chord, G chord, and Em chord.
These set you up to play a a lot of songs, and each of them is easy to master.

If you are looking for Absolutely ukulele chords, you have visit to the best site.
You can play versatile instrument Absolutely using ukulele or guitar.
This song by Headstones can also be played by that instruments.
=

Absolutely chords has rhythm and included in Picture of Health (1993) album.
You can also get other musical style, including jazz ukulele chords, country music ukulele chords, pop ukulele chords, world music ukulele chords, and rock ukulele chords here.

Absolutely by Headstones Ukulele Chords

Date: Tue, 07 Apr 1998 17:06:49 -0600
From: The Hansen Family
Subject: TAB: hheadstonesabsolutely.tab

tab for Absolutely by the Headstones
from the album Picture of Health
transcribed by Matthew Hansen

intro and chorus riff:

e—————————————–|
B—————————————–|
G—–4–4-4—-7-7-7———————|
D—–4–4-4—-7-7-7—-7—-2-2-2-2-2-2-|
A—–2–2-2—-5-5-5—-7—-2-2-2-2-2-2-|
E————————5—-0-0-0-0-0-0-|
———————————————|
———————————————|
—-4–4-4—-7-7-7—-11—-9-9-9—7—9-9-|
—-4–4-4—-7-7-7—-11—-9-9-9—7—7-7-|
—-2–2-2—-5-5-5—-9—–7-7-7—5—7-7-|
———————————————|

verse: let this chord (B5) ring:

e—–
[B—–]
[G—4-]
[D—4-]
[A—2-]
[E—–]

other verse riff( ..to a sea of belligerance..)

e————————————–|
B————————————–|
G——-4————–9-9-9-9-9-9-9-9-|
D—–4———-7—–7-7-7-7-7-7-7-7-|
A—2———-7——-7-7-7-7-7-7-7-7-|
E————5————————-|

bridge riff

e————————————————|
B————————————————|
G————————————————|
D—77777777—-22222222—-44444444—-77777777-|
A—77777777—-22222222—-44444444—-77777777-|
E—55555555—-00000000—-22222222—-55555555-|
——————————————————————|
——————————————————————|
——————————————————————|
—-77777777—-22222222—–4444444444444444

To play the this songs, including Absolutely by Headstones by ukulele, the most important basic ukulele chords to learn are C chord, D chord, G chord, and Em chord.
These set you up to play a a lot of songs, and each of them is easy to master.

If you are looking for Tweeter and the Monkey Man ukulele chords, you already come to the best site.
You can play versatile instrument Tweeter and the Monkey Man using ukulele or guitar.
This song by Headstones can also be played by that instruments.
=

Tweeter and the Monkey Man chords has rhythm and included in Picture of Health (1993) album.
You can also find another musical style, including jazz ukulele chords, country music ukulele chords, pop ukulele chords, world music ukulele chords, and rock ukulele chords here.

Tweeter and the Monkey Man by Headstones Ukulele Chords

Artist-Headstones
Song-Tweeter And The Monkey Man
Album-Pitcure Of Health 1993
Guitarists- Trent Carr
origonal Words And Score By-The Travelling Willburys
Sung By-Hugh Dillion of the headstones

()-harmonic
/-slide
b-bend


|---------2-2-2-2--------------------|
|---------3-3-3-3-2-2-2-2------------|
|-1-1-1-1-2-2-2-2-2-2-2-2-1-1-1-1----|
|-2-2-2-2-0-0-0-0-2-2-2-2-2-2-2-2----|
|-2-2-2-2---------0-0-0-0-2-2-2-2----|
|-0-0-0-0-----------------0-0-0-0----|

Tweeter and the monkey man were hard up for cash
They Stayed up all night selling cocaine and hash.
To an undercover sop who had a sister named Jan.
For Reasons unexplained she loved the monkey man
Tweeter was a boy scout coz he went to vietnam
Found out the hard way nobody gives a damn
They knew that they found freedom just across the jersey line
So they hopped into a stolen car took highway 99

And the walls came down all the way to hell
Never saw them when they’re standing
Never saw them when they fell


|----------------------------------|
|----------------------------------|
|1-1-1-1-1-1-1-1-1-1-1-1-1---------|
|2-2-2-2-2-2-2-2-2-2-2-2-2---------|
|2-2-2-2-2-2-2-2-2-2-2-2-2---------|
|0-0-0-0-0-0-0-0-0-0-0-0-0--7--/--2|

same chords as before
The undercover cop never liked the monkey man
Even back in highShcool wanted to see him in the can
Jan got married at fourteen to a rackateer named bill
She made secret plans to the monkey man from a mansion on the hill

It was out on Thunder Road, Tweeter at the wheel
Pulled into paradise, you could hear the tires squeal
It was Jan who’d told him many times “It was you to me who’d taught:
In Kingston everything’s legal as long as you don’t get caught”

And the walls came down
All the way to hell
Never saw them when they standin
Never saw them when they fell


|------------------------------|
|------------------------------|
|------------------------------|
|------5-----------------------|
|----5---7-5-7-----------------|
|--7---------------------------|


|----------------------------------|
|----------------------------------|
|1-1-1-1-1-1-1-1-1-1-1-1-1---------|
|2-2-2-2-2-2-2-2-2-2-2-2-2---------|
|2-2-2-2-2-2-2-2-2-2-2-2-2---------|
|0-0-0-0-0-0-0-0-0-0-0-0-0--7--/--2|

Some place by Riway prison they ran out of gas
The undercover cop cornered ’em, said “You didn’t think that this could last”
Jan jumped up out of bed said “There’s some place I gotta go”
She took the gun out of the drawer, and said “It’s best that you don’t know”
An ambulance rolled up, State Trooper close behind
Tweeter took his gun away and messed up his mind
The undercover cop was found face down in a field
The Monkey Man was on the bridge using Tweeter as a shield
And the walls came down
All the way to hell
Never saw them when they standin
Never saw them when they fell

guitar1 guitar2 A A A G


|--------------|------------------| x x x 3
|--------------|------------------| 2 2 2 2
|--------------|------------------| 2 2 2 0
|------5b------|-------10b--------| 2 2 2 0
|----5---7-5-7-|----10----12-10-12| 0 0 0 3
|--7-----------|-12---------------| x x x 3

same chords
The town of Jersey City is quieting down again
I’m sitting in a gambling club called The Lion’s Den
The TV set is blown up, every bit of it is gone
Ever since the night when they showed that the Monkey Man was on
Maybe I’ll go to Florida, get myself some sun
There ain’t no more opportunity here and everythings been done
Sometimes I think of Tweeter, sometimes I think of Jan
Sometimes I don’t think about nothin’ but the Monkey Man
And the walls came down
All the way to hell
Never saw them when they standin
Never saw them when they fell

To play the this songs, including Tweeter and the Monkey Man by Headstones by ukulele, the most important basic ukulele chords to learn are C chord, D chord, G chord, and Em chord.
These set you up to play a many of songs, and each of them is easy to master.

If you are searching for Tweeter and the Monkey Man ukulele chords, you’ve come to the best place.
You can play versatile instrument Tweeter and the Monkey Man using ukulele or guitar.
This song by Headstones can also be played by that instruments.
=

Tweeter and the Monkey Man chords has rhythm and included in Picture of Health (1993) album.
You can also get other musical style, including jazz ukulele chords, country music ukulele chords, pop ukulele chords, world music ukulele chords, and rock ukulele chords here.

Tweeter and the Monkey Man by Headstones Ukulele Chords

E D A E (Chord progression same for verse & chorus)

Tweeter and the monkey man were hard up for cash
They stayed up all night selling cocaine and hash
To an undercover cop who had a sister named Jan
For Reasons unexplained she loved the monkey man

Full drums, 2nd guitar comes in

Tweeter was a boyscout coz he went to Vietnam
Found out the hard way nobody gives a damn
They knew that they found freedom just across the Jersey line
So they hopped into a stolen car took Highway 99

And the walls came down
All the way to hell
Never saw them when they’re standing
Never saw them when they fell


|----------------------------------|
|----------------------------------|
|1-1-1-1-1-1-1-1-1-1-1-1-1---------|
|2-2-2-2-2-2-2-2-2-2-2-2-2---------|
|2-2-2-2-2-2-2-2-2-2-2-2-2---------|
|0-0-0-0-0-0-0-0-0-0-0-0-0--7--/--2|

Same chords as before, single guitar and drum beat only

The undercover cop never liked the monkey man
Even back in High School wanted to see him in the can
Jan got married at fourteen to a racketeer named Bill
She made secret plans to the monkey man from a mansion on the hill

Full drums, both guitars

It was out on Thunder Road, Tweeter at the wheel
Pulled into paradise, you could hear the tires squeal
It was Jan who’d told him many times “It was you to me who’d taught:
In Kingston everything’s legal as long as you don’t get caught”

And the walls came down
All the way to hell
Never saw them when they standing
Never saw them when they fell


|------------------------------|
|------------------------------|
|------------------------------|
|------5-----------------------|
|----5---7-5-7-----------------|
|--7---------------------------|


|----------------------------------|
|----------------------------------|
|1-1-1-1-1-1-1-1-1-1-1-1-1---------|
|2-2-2-2-2-2-2-2-2-2-2-2-2---------|
|2-2-2-2-2-2-2-2-2-2-2-2-2---------|
|0-0-0-0-0-0-0-0-0-0-0-0-0--7--/--2|

Single guitar, drum beat only

Some place by Riway prison they ran out of gas
The undercover cop cornered ’em, said “You didn’t think that this could last”
Jan jumped up out of bed said “There’s some place I gotta go”
She took the gun out of the drawer, and said “It’s best that you don’t know”

Full drums, both guitars

An ambulance rolled up, State Trooper close behind
Tweeter took his gun away and messed up his mind
The undercover cop was found face down in a field
The Monkey Man was on the river bridge using Tweeter as a shield
And the walls came down
All the way to hell
Never saw them when they standing
Never saw them when they fell

RIFF 2 (x4)

guitar1 guitar2 A A A G


|--------------|------------------| x x x 3
|--------------|------------------| 2 2 2 2
|--------------|------------------| 2 2 2 0
|------5b------|-------10b--------| 2 2 2 0
|----5---7-5-7-|----10----12-10-12| 0 0 0 3
|--7-----------|-12---------------| x x x 3


Drum beat only, single guitar

The town of Jersey City is quieting down again
I’m sitting in a gambling club called The Lion’s Den
The TV set is blown up, every bit of it is gone
Ever since the night when they showed that the Monkey Man was on

Full drums, both guitars

Maybe I’ll go to Florida, get myself some sun
There ain’t no more opportunity here and everythings been done
Sometimes I think of Tweeter, sometimes I think of Jan
Sometimes I don’t think about nothin’ but the Monkey Man
And the walls came down
All the way to hell
Never saw them when they standing
Never saw them when they fell

RIFF 2 x4, hold on G chord

To play the most songs, including Tweeter and the Monkey Man by Headstones by ukulele, the most crucial basic ukulele chords to learn are C chord, D chord, G chord, and Em chord.
These set you up to play a a lot of songs, and each of them is easy to learn.

If you are looking for Three Angels ukulele chords, you have come to the best place.
You can play versatile instrument Three Angels using ukulele or guitar.
This song by Headstones can also be played by that instruments.
=

Three Angels chords has rhythm and included in Picture of Health (1993) album.
You can also find another musical style, including jazz ukulele chords, country music ukulele chords, pop ukulele chords, world music ukulele chords, and rock ukulele chords here.

Three Angels by Headstones Ukulele Chords


#

#———————————-PLEASE NOTE———————————#

##This file is the author’s own work and represents their interpretation of the #
##song. You may only use this file for private study, scholarship, or research. #
#

#——————————————————————————##

#From: jkerr@harley.fcmr.forestry.ca (Jeff Kerr)
#
# Three Angels
# by the Headstones
# (arranged by jeff kerr)
intro: D G C G C D
Three angels settin a table for me tonight
They know my face, they set a place and it’s for me tonight
Well I can’t disappoint em, I guess I’ll join em,
They been waitin on me forever
And I been down, on earth and in this town
And I swear there’s gotta be something better
(intro x 2)
New suit, and a new tie, a real nice service for me when I die.
D G C G C D(hold)
New suit, cufflinks, and a new tie, a real nice service for me when i die.
Well that’s the thing about livin,
When ya get there, you’re seldom forgiven.
And all your best friends are people that you just met.
You can take em or you leave em,
Well they’re sittin in this barroom,
And I guess that beats the hell outta,
loneliness, sweet lonliness, sweet lonliness.
They say ya gave it, gave it all away,
Well you got nothin, nothin left to trade.
I hear you sayin, I gave it all away,
A Em G A (hold)
you’ve got nothin, nothin left to trade.
(same pattern as first verse)
We’re the type, we live and learn, scatter my ashes then you smash the urn.
Into a broken room, with 25 doors that you can open.
And each time you open one, the other 24, they’re explodin, explodin.
(same as above)
That’s the thing about livin, when you get there you take what you’re given
And all your best friends are people you just met.
You can take em or you leave em, they’re sittin in this barroom,
but I guess that beats the hell outta lonliness,
sweet lonliness, sweet lonliness, sweet
New suit, new tie, a real nice service for me when I die.
(Any comments to jkerr@harley.fcmr.forestry.ca)

To play the this songs, including Three Angels by Headstones by ukulele, the most important basic ukulele chords to learn are C chord, D chord, G chord, and Em chord.
These set you up to play a ton of songs, and each of them is easy to master.