If you are looking for Kick It Out ukulele chords, you already visit to the right place.
You can play versatile instrument Kick It Out using ukulele or guitar.
This song by Heart can also be played by that instruments.
=

Kick It Out chords has rhythm and included in Little Queen (1977) album.
You can also find other musical style, including jazz ukulele chords, country music ukulele chords, pop ukulele chords, world music ukulele chords, and rock ukulele chords here.

Kick It Out by Heart Ukulele Chords


~This is a great song…Heart is awesome!!~

Intro: Rhythm guitar vamp on A, to G

Out on the street you’d better get on home
Tail shaking filly running on her own
They say she got loose on the night she was born
Cranking it up in a school zone (BAND STOP)

Kick it out, come on, kick it out, she said
Kick out your motor and drive
While you’re still alive – kick it out!

Sitting in a bar in a seaside town
Sweet little love getting high getting down
Sailors see her running along the beach
Laugh and jump out of reach

Wild music blowing in her mane
She needs a bareback rider wont give her no pain
A hard racy game of give and take
Leaves them dazed – half crazed- in her wake

CHORUS 2x (Band Stop)

Lead Break: F#m D B E A G D

CHORUS 2x

Ends on D

To play the this songs, including Kick It Out by Heart by ukulele, the most important basic ukulele chords to learn are C chord, D chord, G chord, and Em chord.
These set you up to play a many of songs, and each of them is easy to learn.

If you are searching for Dream of the Archer ukulele chords, you have come to the right site.
You can play versatile instrument Dream of the Archer using ukulele or guitar.
This song by Heart can also be played by that instruments.
=

Dream of the Archer chords has rhythm and included in Little Queen (1977) album.
You can also get other musical genres, including jazz ukulele chords, country music ukulele chords, pop ukulele chords, world music ukulele chords, and rock ukulele chords here.

Dream of the Archer by Heart Ukulele Chords


----------------------------------------------------------------------------

Dream of the Archer – by Heart


----------------------------------------------------------------------------

This is my interpretation of the Mandolin TAB for this song
Tuning: standard

Figures 1 & 2 are played in tandem, if only one mandolin, then I would play
Fig. 2 but either one sounds good individually. Just listen to the song and
get the feel for it.

The song goes in this order:
Fig. 1/2, 1/2, 3, 1/2, 3, 3, 4, 4, 5

Verses: Mandolin 1 (fig. 1)


E|-0-----------------------------------3--3--2--2--2--0-|
A|-0-----------------------------------2--2--2--2--2--0-|
D|-2-----------------------------------2--2--4--4--4--2-|
G|-5-----------------------------------------4--4--4--5-|

Verses: Mandolin 2 (fig. 2)


E|-0---7--8--8----10-8--7----7--8--5---3--3--2--2--2--0-0-1-3-5p3p1p0-----|
A|-0---0--0--0----0--0--0----0--0--0---2--2--2--2--2--0---------------3-0-|
D|-2---10-10-10---10-10-10---10-10-2---2--2--4--4--4--2-------------------|
G|-5---9--9--9----9--9--9----9--9------------4--4--4----------------------|

Chorus 1: (fig. 3)


E|-0-------0-1-0-----0-1-0-------0-1-0-----0-1-0----|
A|-3------0-----0-0-0-----0-----0-----0-0-0-----0-0-|
D|-2-----3-------3-0-------0-2-3-------3-0-------0--|
G|-0------------------------------------------------|

Chorus 2: (fig. 4)


E|-0-------0-1-3-5p3p1p0---------0-1-0-----0-1-0----|
A|-3------0-------------3-0-----0-----0-0-0-----0-0-|
D|-2-----3---------------------3-------3-0-------0--|
G|-0------------------------------------------------|

Outro: (fig. 5)


E|---0-1-0-1-3-5p3p1p0-----|
A|--0-----0-0-0-------3-0--| repeat through fade out
D|-2---------------------0-|
G|-------------------------|

| / slide up
| slide down
| h hammer-on
| p pull-off
| ~ vibrato
| + harmonic
| x Mute note

To play the this songs, including Dream of the Archer by Heart by ukulele, the most crucial basic ukulele chords to learn are C chord, D chord, G chord, and Em chord.
These set you up to play a a lot of songs, and each of them is easy to learn.

If you are looking for Kick It Out ukulele chords, you already come to the best place.
You can play versatile instrument Kick It Out using ukulele or guitar.
This song by Heart can also be played by that instruments.
=

Kick It Out chords has rhythm and included in Little Queen (1977) album.
You can also find another musical genres, including jazz ukulele chords, country music ukulele chords, pop ukulele chords, world music ukulele chords, and rock ukulele chords here.

Kick It Out by Heart Ukulele Chords


~This is a great song…Heart is awesome!!~

Intro: Rhythm guitar vamp on A, to G

Out on the street you’d better get on home
Tail shaking filly running on her own
They say she got loose on the night she was born
Cranking it up in a school zone (BAND STOP)

Kick it out, come on, kick it out, she said
Kick out your motor and drive
While you’re still alive – kick it out!

Sitting in a bar in a seaside town
Sweet little love getting high getting down
Sailors see her running along the beach
Laugh and jump out of reach

Wild music blowing in her mane
She needs a bareback rider wont give her no pain
A hard racy game of give and take
Leaves them dazed – half crazed- in her wake

CHORUS 2x (Band Stop)

Lead Break: F#m D B E A G D

CHORUS 2x

Ends on D

To play the this songs, including Kick It Out by Heart by ukulele, the most crucial basic ukulele chords to learn are C chord, D chord, G chord, and Em chord.
These set you up to play a many of songs, and each of them is easy to master.

If you are searching for Straight On ukulele chords, you’ve visit to the right place.
You can play versatile instrument Straight On using ukulele or guitar.
This song by Heart can also be played by that instruments.
=

Straight On chords has rhythm and included in Dog & Butterfly (1978) album.
You can also get other musical style, including jazz ukulele chords, country music ukulele chords, pop ukulele chords, world music ukulele chords, and rock ukulele chords here.

Straight On by Heart Ukulele Chords


Fabulous song from 1978, and what beautiful rock voices by Nancy and Ann. Barre

chords: Bm – 7th fret; A – 5th fret; G – 3rd fret; E – 0 fret; F# – 2nd fret; C –

8th fret. Regular chord: D – xx0232

Intro: Bm 0:16

Verse 1
Quite some time, I been sittin’ it out,
Didn’t take no chances, I was a prisoner of doubt.
I knocked down the wailing wall, ain’t no sin,
Got the feel of fortune, deal me in. 0:50

Chorus
Comin’ straight on for you, you made my mind.
Now I’m stronger, now I’m comin’ through,
Straight on, straight on for you,
Straight on for you. [F#-F#-F#-F#] 1:16

Verse 1
Now I know I got to play my hand,
What the winner don’t know, a gambler understands.
My heart keeps a-playin’ it through, with you, my friend,
I’ll take my chances on you again and again, again. 1:50

Chorus
Comin’ straight on for you, you made my mind.
Now I’m stronger, now I’m comin’ through,
Straight on, straight on for you,
Straight on for you. 2:15
C A Bm
Oooo-ooo, etc. 5:06

To play the most songs, including Straight On by Heart by ukulele, the most important basic ukulele chords to learn are C chord, D chord, G chord, and Em chord.
These set you up to play a ton of songs, and each of them is easy to master.

If you are searching for Little Queen ukulele chords, you have come to the right site.
You can play versatile instrument Little Queen using ukulele or guitar.
This song by Heart can also be played by that instruments.
=

Little Queen chords has rhythm and included in Little Queen (1977) album.
You can also find another musical genres, including jazz ukulele chords, country music ukulele chords, pop ukulele chords, world music ukulele chords, and rock ukulele chords here.

Little Queen by Heart Ukulele Chords


Notes:

^…bend (qquarter step)
pm..palm mute
/…slide up
…slide down
~…vibrato
o
o…repeat

-Tuning: Standard
-bar lines indicate measures of 4/4 time
-the chords shown along the top of the staff in Figure 1 and
in the verses are played as follows:


E --8-----7--
B --10----8--
G --10----7--
D --x-----x--
A --x-----x--
E --x-----x--

-for the first staff of the verses, the chords listed (at top
of staff) and the tabbed notation are two different guitar parts
(which is why the chords indicate G, but the tab shows G5)

INTRO:

Figure 1 – play 2x


E -------------|----------------|-------------|----------------|
B -------------|----------------|-------------|----------------|
G -------------|----------------|-------------|----------------|
D -------------|----------------|-------------|-----------3----|
A ------5~-----|-----------3----|------5~-----|-------------5--|
E -1~----------|-1---3-4-5---5--|-1~----------|-1---3-4-5------|
pm----| pm----|

1ST VERSE:

You’d rather And only the
have wine than gin, finest by your skin,


E -------------|----------------|-------------|----------------|
B -------------|----------------|-------------|----------------|
G -------------|----------------|-------------|----------------|
D --5----------|----------------|--5----------|----------------|
A --5----------|-------5~-------|--5----------|-------5~-------|
E --3----------|-1~-------------|--3----------|-1~-------------|

You’re always Catching your fancy
running after time, with rhyme,


E ---------------|---------------|
B ---------------|---------------|
G --10------10--|--3------------|
D --10------10--|--3------------|
A --8--------8--|--1------------|
E ---------------|---------------|

Shining on the front page again


E ---------------------|----------------------11-|-10---------10--|
B ---------------------|---------------9--/13----|------------10--|
G --------10---------9-|--------8--/10-----------|-----------------|
D -8-8/12-----7-7/11---|-6-6/10------------------|-----------------|
A ---------------------|-------------------------|-----------------|
E ---------------------|-------------------------|-----------------|

| | |
| | |
| Ab5 |G5 |


E ---------------------|-------------------------|-----------------|
B ---------------------|-------------------------|-----------------|
G ---------------------|-------------------------|-----------------|
D ---------------------|--------------6--6--6--6-|-5--5--5--5--5---|
A --------8---------7--|--------6-----6--6--6--6-|-5--5--5--5--5---|
E -6-6/10-----5-5/9----|--4-4/8-------4--4--4--4-|-3--3--3--3--3---|

CHORUS:

Now you’re hot on the
presses today, Little Queen


E ----------------------|--------------------|
B ----------------------|--------------------|
G ----------------------|--5--------7--------|
D ------------------3---|--5--------7--------|
A --3-3---3---3-3-5-----|--3--------5--------|
E ----------------------|--------------------|

Making your passion play,
Little Queen


E ----------------------|--------------------|
B ----------------------|--------------------|
G ---10-------7---------|--5--------7-7------|
D ---10-------7---------|--5--------7-7------|
A ---8--------5---------|--3--------5-5------|
E ----------------------|--------------------|

Nobody knows your melancholy mind


E -------------------|-------------------|
B -------------------|-------------------|
G -------------------|-------------------|
D -8-8-8-8-8-8-------|-5-5-5-5-5-5-------|
A -8-8-8-8-8-8-------|-5-5-5-5-5-5-------|
E -6-6-6-6-6-6-------|-3-3-3-3-3-3-------|

| |
| |
Bb | Gm |


E ---------6---------|---------3---------|
B ---------6---------|---------3---------|
G ---------7---------|---------3---------|
D ---------8---------|---------5---------|
A ---------8---------|---------5---------|
E ---------6---------|---------3---------|

Little Queen


E -------------|----------------|-------------|----------------|
B -------------|----------------|-------------|----------------|
G -------------|----------------|-------------|----------------|
D -------------|----------------|-------------|-----------3----|
A ------5~-----|-----------3----|------5~-----|-------------5--|
E -1~----------|-1---3-4-5---5--|-1~----------|-1---3-4-5------|
pm----| pm----|

2ND VERSE: (played same as 1st Verse)

Away from the sellers, the papers said
Your crown was tight and heavy on your head
But still you danced and you sang
All night the telephone rang
And music kept on playing from your pen

CHORUS 2 (Play Chorus 1 up to “Nobody knows your melancholy mind”)
Then:

Little Queen,yeah Little Queen,


E -------------|----------------|-------------|----------------|
B -------------|----------------|-------------|----------------|
G -------------|----------------|-------------|----------------|
D -------------|----------------|-------------|-----------3----|
A ------5~-----|-----------3----|------5~-----|-------------5--|
E -1~----------|-1---3-4-5---5--|-1~----------|-1---3-4-5------|
pm----| pm----|

yeah Little Queen


E -------------|----------------|-------------|----------------|
B -------------|----------------|-------------|----------------|
G -------------|----------------|-------------|----------------|
D -------------|----------------|-------------|-----------3----|
A ------5~-----|-----------3----|------5~-----|-------------5--|
E -1~----------|-1---3-4-5---5--|-1~----------|-1---3-4-5------|
pm----| pm----|

BRIDGE:

Ooooooo
Dm Am You better


|---------0-1--|--------0-1---1-0---||---------0----|--------0-------0---|
|o------3------|------3-----3------o||o------1---0--|------1---0---0----o|
|-----2--------|----2---------------||-----2--------|----2-------2-------|
|--(0)---------|-(0)----------------||--------------|--------------------|
|o-------------|-------------------o||o-(0)---------|-(0)---------------o|
|--------------|--------------------||--------------|--------------------|

Figure 2 –
1. shine, You better shine, shine, shine tonight
2. shine, You know, you better Ohhh


|---------0-1--|--------0-1---1-0---||---------0----|--------0-------0---|
|o------3------|------3-----3------o||o------1---0--|------1---0---0----o|
|-----2--------|----2---------------||-----2--------|----2-------2-------|
|--(0)---------|-(0)----------------||--------------|--------------------|
|o-------------|-------------------o||o-(0)---------|-(0)---------------o|
|--------------|--------------------||--------------|--------------------|

| | || | |
| | || | |
| | || | |


|--------------|--------------------||---------0----|--------0-----------|
|o-------------|-------------------o||o------1---0--|------1---0---0-1--o|
|---------0-2--|--------0-2---2-0---||-----2--------|----2-------2-------|
|-----0-3------|----0-3-----3-------||--------------|--------------------|
|o-------------|-------------------o||o-------------|-------------------o|
|--------------|--------------------||--------------|--------------------|

Continue playing Figure 2 for rest of Bridge (next 5 lines of lyrics)

Raining – He knows your soul ain’t free
Raining – Oh, and he feels you, Little Queen, yeah
Raining, raining – I see you, I see you
Raining – He knows you’re raining
Oh yeah

Play FIGURE 1 1x

3RD VERSE: (played same as 1st Verse)

Now you’re slipping away with your gypsy band
And you’re hot on your music and playing a winning hand
He was standing in line
Thinking how you moved his mind
And feeling like he held you in his hand

Play CHORUS 2
Then:

1. Little Queen
2. Ooooo,


E -----------------10-10-|--------------------------------|
B -----------------10-10-|-------------------------------o|
G --10^q-----------------|--------------------------------|
D --10^q----12~----------|---------------------10----10---|
A -----------------------|--------------8--/12----12-----o|
E -----------------------|--8-8--8--10--------------------|

1. oh oh Little Queen


E -----------------10-13-|--------------------------------|
B -----------------10-13-|-------------------------------o|
G -----------------------|--------------------------------|
D --10^q----12~----------|---------------------10----10---|
A -----------------------|--------------8--/12----12-----o|
E -----------------------|--8-8--8--10--------------------|

Play Figure 1 and fade…

their interpretation of the song.)

To play the most songs, including Little Queen by Heart by ukulele, the most important basic ukulele chords to learn are C chord, D chord, G chord, and Em chord.
These set you up to play a many of songs, and each of them is easy to master.

If you are searching for Even It Up ukulele chords, you’ve come to the best site.
You can play versatile instrument Even It Up using ukulele or guitar.
This song by Heart can also be played by that instruments.
=

Even It Up chords has rhythm and included in Bébé le Strange (1980) album.
You can also get another musical genres, including jazz ukulele chords, country music ukulele chords, pop ukulele chords, world music ukulele chords, and rock ukulele chords here.

Even It Up by Heart Ukulele Chords


INTRO: E A E A

(VERSE) (E) “I’m the one who can please you”
Ain’t that what you said
You seemed so alone
I guess I was easily led

(A) I showed you my love
But I guess that it went to your head
(E) When you were hungry
I brought you your breakfast in bed

(CHORUS) (A) Even it up, even it up, even it up
Even it up, even it up, even it up
A (F#) (G) good man pays his (A) debt
(F#) But you (G) ain’t paid yours (A) yet
Even it
Even it up


(VERSE)

(CHORUS)

To play the this songs, including Even It Up by Heart by ukulele, the most crucial basic ukulele chords to learn are C chord, D chord, G chord, and Em chord.
These set you up to play a many of songs, and each of them is easy to master.

If you are looking for Silver Wheels ukulele chords, you have visit to the best site.
You can play versatile instrument Silver Wheels using ukulele or guitar.
This song by Heart can also be played by that instruments.
=

Silver Wheels chords has rhythm and included in Bébé le Strange (1980) album.
You can also find other musical style, including jazz ukulele chords, country music ukulele chords, pop ukulele chords, world music ukulele chords, and rock ukulele chords here.

Silver Wheels by Heart Ukulele Chords


Gtr I (Eb Ab Db Gb Bb Eb) – ‘Nancy Wilson – Acoustic Guitar (1/2 step down)’

Q92

[4/4] Gtr I (Ac. Gtr. / 1/2 step down – Eb Ab Db Gb Bb Eb)
E E E E E E Q E E E E E E Q E E E E E E E E E E E E E E Q

|———0——|——-0——–|—————–|—–0—–0-0–|
|——-3—3—-|——-0——–|—————–|—2—3—5-5–|
|—–4——-4–|-4S2———2–|-2p0———–0-|—————-|
|—4-4-4——–|—–2—–2—-|—–2——-2—|—2—4—5-5–|
|-2———–2–|-2——-0——|——-2—2—–|-0——-0——|
|—————-|—————-|-0——-0——-|—————-|

Q Q [AsusB5D5]E E E E E E E E E E E E E E E E E E E E E E E E E E E E

|—————|——-0———|—————–|——————|
|-3—–0—0—|-0—0———0-|—————–|——————|
|-4–4–2S4-4S7-|-4S2-2——-2—|-2p0———0—|——-2—–2—-|
|—-4–2S4-4S7-|-4S2-2—–2—–|—–2——-2p0-|—–4—2—–2–|
|-2—–0—2S5-|-2——-0——-|——-2—2—–|—4——-4——|
|—————|—————–|-0——-0——-|-2—————-|

ritardando Q72Q92
E E E E E E E E E E E E E E Q E E E E E E Q Q Q E E Q

|—————–|—————-|—————-||-^4———4–|
|———2——-|———1——|———1——||-^0——-0—-|
|——-2—2—–|——-2—2—-|——-2—2—-||-^4—–4—4–|
|—–4——-4—|-3—3——-3–|—–3——-1–||—–2———|
|—4————-|—3————|—3————||—————|
|-2————-2-|-1————–|-1————–||-^0————|

[B7/Eb] Q E E E E Q Q E E E E Q E E E E E E E E Q Q E E E E

|-^2———-2–|-^4————-|——————|—————-|
|-^0——–0—-|-^5————-|-^5p4————-|—-0–2—4—-|
|-^2——2—2–|-^6—-6-4-6—-|-^6—6-4———|-2–2——4—-|
|-^1—-1——–|—–6——-6–|-^6——-6p4-6S4-|——-2—4—-|
|—————-|-^4————-|-^4——-4—4S2-|-0———2—-|
|—–0———-|—————-|——————|—————-|

Q E E E E Q [B7/Eb] Q E E E E E E E E E E Q Q E E E E E E E E

|————^4–|-^2———4—-2-|—————|-^7p4————–|
|-5——2—^2–|-^0—————-|———5—–|-^5—7p5———-|
|——4—4-^4–|-^2——/2—/4—|—–6-4—-6–|-^4—4—6p4——|
|—-2———–|-^1—-1———–|—6-6——6–|———-6—6S4–|
|—————-|——————-|-4————-|-^4———–4S2–|
|-2————–|—–0————-|—————|——————-|

Q Q Q Q Q E E Q E E E E E E E E Q

|—————|———^2——|————0-2–|
|—-0–^2–^4–|-^5——^2——|—0-2S4-^4——|
|-2–2–^2–^2–|-^2—-4-^2——|-2-2-2S4-^4—4–|
|-2—–^4–^4–|-^4–4———–|-2-2-2S4—-4—-|
|-0————-|—————–|-0——-^2——|
|———–^0–|-^2——^2–2-0-|—————–|

H.H
E E E E E E E E E E E E Q Q Q Q H

|-^0—————|——-0———|——-0———|
|-^0—–0——-0-|—–0—————|————-|
|-^1—1——-1—|—1—1————-|—————–|
|——4-4—–4-4-|-4—4—————|—————–|
|—-2——-2—–|—2—————–|—————–|
|-^0——-0——-|-0—————|————–|

To play the most songs, including Silver Wheels by Heart by ukulele, the most crucial basic ukulele chords to learn are C chord, D chord, G chord, and Em chord.
These set you up to play a a lot of songs, and each of them is easy to learn.

If you are searching for I Need the Rain ukulele chords, you’ve visit to the right place.
You can play versatile instrument I Need the Rain using ukulele or guitar.
This song by Heart can also be played by that instruments.
=

I Need the Rain chords has rhythm and included in Jupiters Darling (2004) album.
You can also get other musical genres, including jazz ukulele chords, country music ukulele chords, pop ukulele chords, world music ukulele chords, and rock ukulele chords here.

I Need the Rain by Heart Ukulele Chords


This song is originally played on a mandolin, but these would be the guitar chords to
play along.
LONG HAVE I WANDERED SO FAR FROM HOME
COME TO A PLACE I HAVE NEVER KNOWN
GONE TOO DEEP UNDERGROUND
GONE TOO FAR BETTER TURN AROUND
I’VE BEEN RUNNING AWAY, I’VE BEEN RUNNING AWAY

CHORUS:
DON’T YOU KNOW I NEED THE RAIN TO HIDE MY TEARS
TO COVER ME – WASH ME CLEAR
DON’T YOU KNOW I NEED THE RAIN TO HIDE MY TEARS
I’M IN MY CLOUD – IO’M NOT HERE
NO KILLING SUN TO KNOW WHERE I GO
NO KILLING SUN TO KNOW WHERE I GO

STOP THE WORLD MAKE IT WAIT
DON’T YOU BURN MY EYES IN THE FIRE OF DAY
LET ME STAY DARK & SAFE
AND THIS CRAZY RAIN IS MY LAST ESCAPE
I’VE BEEN RUNNING AWAY, I’VE BEEN RUNNING AWAY

CHORUS:

BRIDGE: G – Am – Em – C (REPEAT) D – C -Am

I’VE BEEN RUNNING AWAY, I’VE BEEN RUNNING AWAY

CHORUS:

END ON: A (CHORD)

To play the this songs, including I Need the Rain by Heart by ukulele, the most important basic ukulele chords to learn are C chord, D chord, G chord, and Em chord.
These set you up to play a ton of songs, and each of them is easy to master.

If you are looking for Down on Me ukulele chords, you already come to the right place.
You can play versatile instrument Down on Me using ukulele or guitar.
This song by Heart can also be played by that instruments.
=

Down on Me chords has rhythm and included in Bébé le Strange (1980) album.
You can also find another musical genres, including jazz ukulele chords, country music ukulele chords, pop ukulele chords, world music ukulele chords, and rock ukulele chords here.

Down on Me by Heart Ukulele Chords


Here’s a great song from Heart’s LP “Bebe Le Strange” called Down on me. Have fun.

Intro (Guitar 1-lead)


-15b-15---------------------------------------------------------------------
--------17-15b-15p13--------------13h15-15b-13h15-15b-13h15--13-15----------
---------------------h15-13-13s15-------------------------------------------
------------------------16--------------------------------------------------
-12h15p12-3s5s8s5s3-15b----15b-15-------------------------------------------
----------3s5s8s5s3---------------17-15b-13-15-13-15s17---------------------
----------1s3s6s3s1---------------------------------------------------------

Intro (Guitar 2-chords)


-3--1--1--1--3--------------1--1--------------------------------------------
-4--3--1--3--4--------------1--3--------------------------------------------
-5--3--1--3--5--3s5s8s5s3---1--3--------------------------------------------
-5--3--3--3--5--3s5s8s5s3---3--3--------------------------------------------
-3--1--3--1--3--1s3s6s3s1---3--1--------------------------------------------
-------1--------------------1-----------------------------------------------

Verse:


-3-----3-----1--3---1--3----------------------------------------------------
-3-----3-----1--3---1--3----------------------------------------------------
-3--8--3--8--1--3---1--3----------------------------------------------------
-5--8--5--8--3--3---3--5--3s5s8s5-------------------------------------------
-5--6--5--6--3--5---3--5--3s5s8s5-------------------------------------------
-3-----3-----1--3---1--3--1s3s6s3-------------------------------------------

Chorus:


--------------------------------------------------------3--1--1--1----------
-------4-----------4------------------------------------4--3--1--3----------
-----3---3-------3---3-------------5-----------5--------5--3--1--3----------
---5-------5---5-------5---------4---4-------4---4------5--3--3--3----------
-3-----------3-----------------6-------6---6-------6----3--1--3--1----------
-----------------------------4-----------4--------------------1-------------

Verse 2 same as verse 1 but add these little leads in:
after “..I rocked ya…” after “…lay it on you enough…”


-----18---------------------- -18b-18b-18-16---------------------------
-18b----18b-16-18bvb--------- ---------------16b---16h18p(16)----------
----------------------------- ------------------17---------------------
----------------------------- -----------------------------------------
----------------------------- -----------------------------------------
----------------------------- -----------------------------------------

Intro to bridge:


-1-----------------------------------------------------------------------
-1-----------------------------------------------------------------------
-1-----------------------------------------------------------------------
-3---------3s5s7s6s7-----------------------------------------------------
-3---------3s5s7s6s7-----------------------------------------------------
-1---------1s3s5s4s5-----------------------------------------------------

^ repeat over and over

Bridge:


-------6---5-------6---5-------6---5--20b-20-18--------------------------
-----5---5-------5---5-------5---5--------------19-17-17b----------------
---7-----------7-----------5---------------------------------------------
-5-----------5-----------3-----------------------------------------------


-------6---5-------6---5------------6---5---------6---5------------------
-----5---5-------5---5-----------5----5--------5----5--------------------
---7-----------7--------------5-------------5----------------------------
-5-----------5-------------3-------------3-------------------------------


-------4---3-------4---3-------------------------------------------------------
-----3---3-------3---3----------5-----------5------------5-----------5-----5----
---5-----------5--------------4---4-------4---4--------3---3-------3---3---3----
-3-----------3--------------6-------6---6-------6----5-------5---5-------5-5----
--------------------------4-----------4------------3-----------3-----------3----

(Do intro chords)
(Verse)
(Chorus)

Outro:


-15b-------15-----------------------------------12-15-15-----------------------
-----17-17----17p15-------13h15-15b-13h15-13h15--------------------------------
--------------------13h15------------------------------------------------------
------1-----------3-----------1-----------3------------------------------------
----3---3-------3---3-------3---3-------3---3----------------------------------
--3-------3---3-------3---3-------3---3-------3--------------------------------
1-----------1-----------1-----------1------------------------------------------

(Repeat and fade)

To play the this songs, including Down on Me by Heart by ukulele, the most crucial basic ukulele chords to learn are C chord, D chord, G chord, and Em chord.
These set you up to play a a lot of songs, and each of them is easy to master.

If you are looking for No Other Love ukulele chords, you have come to the right site.
You can play versatile instrument No Other Love using ukulele or guitar.
This song by Heart can also be played by that instruments.
=

No Other Love chords has rhythm and included in Jupiters Darling (2004) album.
You can also find another musical genres, including jazz ukulele chords, country music ukulele chords, pop ukulele chords, world music ukulele chords, and rock ukulele chords here.

No Other Love by Heart Ukulele Chords


No other love, darlin’ I’m flyin’.
No other love, darlin’ I’m flyin’.
And I can go, I can go anywhere.
But no other love can take me there.
(Ohhhhh)
Amaj7Aadd9
No other love, darlin’ I’m flyin’.
Amaj7 Aadd9
No, no other love, darlin’ I’m flyin’.
Bmaj Amaj7
And I can go, I can go anywhere.
No other love can take me there.
Aadd9 Amaj7
[(Mmmmmm)]
Darlin’ I’m flyin’.
Darlin’ I’m flyin’.
I can go, I can go anywhere.
But no other love can take me there.

[(Mmm] [mmm)]
No other love, darlin’ I’m flyin’.
No other love, darlin’ I’m flyin’.

To play the most songs, including No Other Love by Heart by ukulele, the most crucial basic ukulele chords to learn are C chord, D chord, G chord, and Em chord.
These set you up to play a many of songs, and each of them is easy to learn.

  • 1
  • 2