If you are looking for Oxalis ukulele chords, you already visit to the best place.
You can play versatile instrument Oxalis using ukulele or guitar.
This song by HIGH and MIGHTY COLOR can also be played by that instruments.
=

Oxalis chords has rhythm and included in album.
You can also find other musical style, including jazz ukulele chords, country music ukulele chords, pop ukulele chords, world music ukulele chords, and rock ukulele chords here.

Oxalis by HIGH and MIGHTY COLOR Ukulele Chords


Intro: F – C – Dm – Bb
Verse: F – C – Dm – Bb
Refrain: F – C – Dm – Bb-C
Chorus: F – C – Dm – Bb

Dore kurai naita no ka wakattenai kedo
Ima ijou ni anata wo omotteru no wa tashika
Ah kagi demo kakete ah omoidashite goran to
Zutto minuitetan da ~hohoo~

Ah omoidashiteta
Ah nakibesokaite
Ah ima ijou ni dakishimete hoshii yo

Amai, amai kuchizuke
Itai, itai yokubari
Kizuite, kizuite watashi no kono sakebi wo
Doko ni tachiagari
Nee doko ni magirekonda no
Sou, watashi nanka ja nakattara ii no ni ne

(same chords to be used)

Haresugita kizuguchi ni kakushiteta no wa
Tada dareka wo yuruseru no wo yume mite na ano hibi
Ah mekakushi wo shite ah sagashidashite goran to
Zutto minuitetan da ~hohoo~

Ah kore yori mo kitto
Ah nakiwameite
Ah kore ijou ni tsukiotosu tsumori na no

Amai, amai yorisoi
Itai, itai tsuyogari
Kizuite, kizuite watashi no kono aseri wo

Doko ni watashi wa
Watashi wo oite kitan darou
Sou, ibasho nanka wa nakutemo ii no ni ne

Amai, amai yakusoku
Itai, itai usotsuki
Kizuite, kizuite watashi no kono sakebi wo
Doushite tachiagari nee doushite magirekonda no
Sou, watashi nanka ja nakattara ii no ni ne

Amai, amai kuchizuke
Itai, itai yokubari
Kizuite, kizuite watashi no kono sakebi wo
Doko ni tachiagari Nee doko ni magirekonda no
Sou, watashi nanka ja nakattara ii no ni ne

To play the most songs, including Oxalis by HIGH and MIGHTY COLOR by ukulele, the most crucial basic ukulele chords to learn are C chord, D chord, G chord, and Em chord.
These set you up to play a ton of songs, and each of them is easy to learn.

If you are searching for SWEET ESCAPE ukulele chords, you already visit to the right place.
You can play versatile instrument SWEET ESCAPE using ukulele or guitar.
This song by HIGH and MIGHTY COLOR can also be played by that instruments.
=

SWEET ESCAPE chords has rhythm and included in G∞VER (2005) album.
You can also find other musical genres, including jazz ukulele chords, country music ukulele chords, pop ukulele chords, world music ukulele chords, and rock ukulele chords here.

SWEET ESCAPE by HIGH and MIGHTY COLOR Ukulele Chords

Tabbed by:GaNdY
Band:High and Mighty Color
Album:Goover
Tuning (D,A,D,G,B,E)

I Have not included the solo because i dont know it (_) but if i learn it i’ll update
tab. Also im not sure on the tuning for H and MC, on their videos they have 7 and 5
but with drop D your intune with the song so ah well. Ive just done the various parts of
song if you listen for the exact rythym and order then you will be sorted.

– Palm Mute

Intro: Some kind of whammy/phaser effect for first part.


E |------------------------------------------------------|
B |------------------------------------------------------|
G |------------------------------------------------------|
D |--7--3--5--5--7---------------------------------------|
A |--7--3--5--3--5---------------------------------------|
D |--7--3--5---------------------------------------------|

Intro 2:


E |------------------------------------------------------|
B |------------------------------------------------------|
G |------------------------------------------------------|
D |--7--3--5--5------------------------------------------|
A |--7--3--3--5------------------------------------------|
D |--7--3-----5------------------------------------------|

Chorus 1:


E |------------------------------------------------------|
B |------------------------------------------------------|
G |------------------------------------------------------|
D |--7--3--5--5--7---------------------------------------|
A |--7--3--5--3--5---------------------------------------|
D |--7--3--5---------------------------------------------|

[-] [-] [-]
Verse:


E |------------------------------------------------------|
B |------------------------------------------------------|
G |------------------------------------------------------|
D |--3--5--757575----------------------------------------|
A |--3--5--757575----------------------------------------|
D |--3--5--757575----------------------------------------|

Chorus 2:


E |------------------------------------------------------|
B |------------------------------------------------------|
G |------------------------------------------------------|
D |--7--3--5--5--7---------------------------------------|
A |--7--3--5--3--5---------------------------------------|
D |--7--3--5---------------------------------------------|

Bridge thingy:


E |------------------------------------------------------|
B |------------------------------------------------------|
G |------------------------------------------------------|
D |--7--3--5--5------------------------------------------|
A |--7--3--3--5------------------------------------------|
D |--7--3-----5------------------------------------------|

High and Mighty Color rock!

To play the most songs, including SWEET ESCAPE by HIGH and MIGHTY COLOR by ukulele, the most crucial basic ukulele chords to learn are C chord, D chord, G chord, and Em chord.
These set you up to play a a lot of songs, and each of them is easy to master.

If you are looking for Oxalis ukulele chords, you have visit to the right place.
You can play versatile instrument Oxalis using ukulele or guitar.
This song by HIGH and MIGHTY COLOR can also be played by that instruments.
=

Oxalis chords has rhythm and included in album.
You can also find other musical style, including jazz ukulele chords, country music ukulele chords, pop ukulele chords, world music ukulele chords, and rock ukulele chords here.

Oxalis by HIGH and MIGHTY COLOR Ukulele Chords


Intro: F – C – Dm – Bb
Verse: F – C – Dm – Bb
Refrain: F – C – Dm – Bb-C
Chorus: F – C – Dm – Bb

Dore kurai naita no ka wakattenai kedo
Ima ijou ni anata wo omotteru no wa tashika
Ah kagi demo kakete ah omoidashite goran to
Zutto minuitetan da ~hohoo~

Ah omoidashiteta
Ah nakibesokaite
Ah ima ijou ni dakishimete hoshii yo

Amai, amai kuchizuke
Itai, itai yokubari
Kizuite, kizuite watashi no kono sakebi wo
Doko ni tachiagari
Nee doko ni magirekonda no
Sou, watashi nanka ja nakattara ii no ni ne

(same chords to be used)

Haresugita kizuguchi ni kakushiteta no wa
Tada dareka wo yuruseru no wo yume mite na ano hibi
Ah mekakushi wo shite ah sagashidashite goran to
Zutto minuitetan da ~hohoo~

Ah kore yori mo kitto
Ah nakiwameite
Ah kore ijou ni tsukiotosu tsumori na no

Amai, amai yorisoi
Itai, itai tsuyogari
Kizuite, kizuite watashi no kono aseri wo

Doko ni watashi wa
Watashi wo oite kitan darou
Sou, ibasho nanka wa nakutemo ii no ni ne

Amai, amai yakusoku
Itai, itai usotsuki
Kizuite, kizuite watashi no kono sakebi wo
Doushite tachiagari nee doushite magirekonda no
Sou, watashi nanka ja nakattara ii no ni ne

Amai, amai kuchizuke
Itai, itai yokubari
Kizuite, kizuite watashi no kono sakebi wo
Doko ni tachiagari Nee doko ni magirekonda no
Sou, watashi nanka ja nakattara ii no ni ne

To play the this songs, including Oxalis by HIGH and MIGHTY COLOR by ukulele, the most crucial basic ukulele chords to learn are C chord, D chord, G chord, and Em chord.
These set you up to play a many of songs, and each of them is easy to learn.

If you are looking for SWEET ESCAPE ukulele chords, you have visit to the best site.
You can play versatile instrument SWEET ESCAPE using ukulele or guitar.
This song by HIGH and MIGHTY COLOR can also be played by that instruments.
=

SWEET ESCAPE chords has rhythm and included in G∞VER (2005) album.
You can also find other musical style, including jazz ukulele chords, country music ukulele chords, pop ukulele chords, world music ukulele chords, and rock ukulele chords here.

SWEET ESCAPE by HIGH and MIGHTY COLOR Ukulele Chords


Tabbed by:GaNdY
Band:High and Mighty Color
Album:Goover
Tuning (D,A,D,G,B,E)

I Have not included the solo because i dont know it (_) but if i learn it i’ll update
tab. Also im not sure on the tuning for H and MC, on their videos they have 7 and 5
but with drop D your intune with the song so ah well. Ive just done the various parts of
song if you listen for the exact rythym and order then you will be sorted.

– Palm Mute

Intro: Some kind of whammy/phaser effect for first part.


E |------------------------------------------------------|
B |------------------------------------------------------|
G |------------------------------------------------------|
D |--7--3--5--5--7---------------------------------------|
A |--7--3--5--3--5---------------------------------------|
D |--7--3--5---------------------------------------------|

Intro 2:


E |------------------------------------------------------|
B |------------------------------------------------------|
G |------------------------------------------------------|
D |--7--3--5--5------------------------------------------|
A |--7--3--3--5------------------------------------------|
D |--7--3-----5------------------------------------------|

Chorus 1:


E |------------------------------------------------------|
B |------------------------------------------------------|
G |------------------------------------------------------|
D |--7--3--5--5--7---------------------------------------|
A |--7--3--5--3--5---------------------------------------|
D |--7--3--5---------------------------------------------|

[-] [-] [-]
Verse:


E |------------------------------------------------------|
B |------------------------------------------------------|
G |------------------------------------------------------|
D |--3--5--757575----------------------------------------|
A |--3--5--757575----------------------------------------|
D |--3--5--757575----------------------------------------|

Chorus 2:


E |------------------------------------------------------|
B |------------------------------------------------------|
G |------------------------------------------------------|
D |--7--3--5--5--7---------------------------------------|
A |--7--3--5--3--5---------------------------------------|
D |--7--3--5---------------------------------------------|

Bridge thingy:


E |------------------------------------------------------|
B |------------------------------------------------------|
G |------------------------------------------------------|
D |--7--3--5--5------------------------------------------|
A |--7--3--3--5------------------------------------------|
D |--7--3-----5------------------------------------------|

High and Mighty Color rock!

To play the this songs, including SWEET ESCAPE by HIGH and MIGHTY COLOR by ukulele, the most important basic ukulele chords to learn are C chord, D chord, G chord, and Em chord.
These set you up to play a many of songs, and each of them is easy to learn.