If you are looking for I Leave on Friday ukulele chords, you already visit to the right site.
You can play versatile instrument I Leave on Friday using ukulele or guitar.
This song by John Garrison can also be played by that instruments.
=

I Leave on Friday chords has rhythm and included in album.
You can also get other musical genres, including jazz ukulele chords, country music ukulele chords, pop ukulele chords, world music ukulele chords, and rock ukulele chords here.

I Leave on Friday by John Garrison Ukulele Chords


John Garrison – I Leave on Friday
From: Departures (2009)
John Garrison’s official website: http://garrisonmusic.com/

Intro and verse:


e|---------------------------------------------------------|
B|-3--3--3--3--2--2--2--2--3--3--3--3--2--2--2--5-2--3-----|
G|--4--4--4--4--4--4--4--4--4--4--4--4--4--4--4---------4--|
D|---------------------------------------------------------|
A|---------------------------------------------------------|
E|---------------------------------------------------------|

I leave on Friday morning
Until then I want you next to me
Spending all my time
Taking in and making memories
I do want you to know
I had the time of my life
I will hold you close inside forever more

But it is time for a real life
Don’t you try, don’t try to stop me
I’ve made my decision now
It’s done, there’s nothing you could do about it
Because I, I leave on Friday
Don’t you try, try running after me
I’m gone and until next time

INTERLUDE


e|--------------------------------------------------------------|
B|-15---15-15-15-14---14-14-14-15---15-15-15-14---15-15-15-14---|
G|-16---16-16-16-16---16-16-16-16---16-16-16-16---16-16-16-16---|
D|--------------------------------------------------------------|
A|--------------------------------------------------------------|
E|--------------------------------------------------------------|

SOLO


e|--7---5------------------|
B|--------7---5------------|
G|-------------------------|
D|-------------------------|
A|-------------------------|
E|-------------------------|

I wonder what you do now
Who you’re with and where you’re going to
Do you think of me
Have you changed your scenery
‘Cause I changed all mine
And I miss those times
I will hold you close inside forever more

But it is time for a real life
Don’t you try, don’t try to stop me
I’ve made my decision now
It’s done, there’s nothing you could do about it
Because I, I leave on Friday
Don’t you try, try running after me
I’m gone and until next time
and until next time
and until next time

[(G] [F#m)] [(G] [F#m)]

There’s nothing you can do about it
Because I, I leave on Friday
Don’t you try, try running after me
I’m gone and until next time
Until next time



To play the most songs, including I Leave on Friday by John Garrison by ukulele, the most important basic ukulele chords to learn are C chord, D chord, G chord, and Em chord.
These set you up to play a ton of songs, and each of them is easy to learn.

If you are searching for I Leave on Friday ukulele chords, you’ve visit to the right site.
You can play versatile instrument I Leave on Friday using ukulele or guitar.
This song by John Garrison can also be played by that instruments.
=

I Leave on Friday chords has rhythm and included in album.
You can also get other musical genres, including jazz ukulele chords, country music ukulele chords, pop ukulele chords, world music ukulele chords, and rock ukulele chords here.

I Leave on Friday by John Garrison Ukulele Chords

John Garrison – I Leave on Friday
From: Departures (2009)
John Garrison’s official website: http://garrisonmusic.com/

Intro and verse:


e|---------------------------------------------------------|
B|-3--3--3--3--2--2--2--2--3--3--3--3--2--2--2--5-2--3-----|
G|--4--4--4--4--4--4--4--4--4--4--4--4--4--4--4---------4--|
D|---------------------------------------------------------|
A|---------------------------------------------------------|
E|---------------------------------------------------------|

I leave on Friday morning
Until then I want you next to me
Spending all my time
Taking in and making memories
I do want you to know
I had the time of my life
I will hold you close inside forever more

But it is time for a real life
Don’t you try, don’t try to stop me
I’ve made my decision now
It’s done, there’s nothing you could do about it
Because I, I leave on Friday
Don’t you try, try running after me
I’m gone and until next time

INTERLUDE


e|--------------------------------------------------------------|
B|-15---15-15-15-14---14-14-14-15---15-15-15-14---15-15-15-14---|
G|-16---16-16-16-16---16-16-16-16---16-16-16-16---16-16-16-16---|
D|--------------------------------------------------------------|
A|--------------------------------------------------------------|
E|--------------------------------------------------------------|

SOLO


e|--7---5------------------|
B|--------7---5------------|
G|-------------------------|
D|-------------------------|
A|-------------------------|
E|-------------------------|

I wonder what you do now
Who you’re with and where you’re going to
Do you think of me
Have you changed your scenery
‘Cause I changed all mine
And I miss those times
I will hold you close inside forever more

But it is time for a real life
Don’t you try, don’t try to stop me
I’ve made my decision now
It’s done, there’s nothing you could do about it
Because I, I leave on Friday
Don’t you try, try running after me
I’m gone and until next time
and until next time
and until next time

[(G] [F#m)] [(G] [F#m)]

There’s nothing you can do about it
Because I, I leave on Friday
Don’t you try, try running after me
I’m gone and until next time
Until next time


To play the this songs, including I Leave on Friday by John Garrison by ukulele, the most important basic ukulele chords to learn are C chord, D chord, G chord, and Em chord.
These set you up to play a a lot of songs, and each of them is easy to master.