If you are searching for Modern Way ukulele chords, you already come to the right site.
You can play versatile instrument Modern Way using ukulele or guitar.
This song by Kaiser Chiefs can also be played by that instruments.
=

Modern Way chords has rhythm and included in Employment (2005) album.
You can also get another musical genres, including jazz ukulele chords, country music ukulele chords, pop ukulele chords, world music ukulele chords, and rock ukulele chords here.

Modern Way by Kaiser Chiefs Ukulele Chords


Standard Tuning: EADGBe, Capo 4th fret for Chords

Chords can also be played as follows:
E A D G B e
Am – C#m (X X 6 6 5 4)
C – E (X 7 9 9 9 7)
F – A (X 7 7 6 5 5)
G – B (X 9 9 8 7 7)


|-----------------------------------------------------------------|
|-----------------------------------------------------------------|
|-----------------------------------------------------------------|
|-----------------------------------------------------------------|
|------11------14------7-------11------11------14------7-------11-|
|-9-------12------5-------9-------9-------12------5-------9-------|


|-------------------------------------------------------|
|-------------------------------------------------------|
|-------------------------------------------------------|
|-------------------------------------------------------|
|----11------------------14--------------7-----------11-|
|-9-----------------12--------------5-----------9-------|

I know ‘cos I’ve seen it, it was great and I want it


|-------------------------------------------------------|
|-------------------------------------------------------|
|-------------------------------------------------------|
|-------------------------------------------------------|
|---------11----------------14-----------7-----------11-|
|-9-------------------12-------------5-----------9------|

There`s no point in sitting, going crazy on my own


|--------------------------------------------------|
|--------------------------------------------------|
|--------------------------------------------------|
|--------------------------------------------------|
|----11-------14--------------7-----------------11-|
|-9------12---------------5---------------9--------|

Do you know what, I was put here in the world for


|----------------------------------------------|
|----------------------------------------------|
|----------------------------------------------|
|----------------------------------------------|
|------ 11-------14-----------7-------------11-|
|-9---------12----------5--------------9-------|

Could you tell me, in three words or more

It’s the only way of getting out of here
It’s the only way of getting out of here


|--------------------------------------------------|
|--------------------------------------------------|
|--------------------------------------------------|
|--------------------------------------------------|
|------1------14--------------7---------------11---|
|-9-------12---------------5-------------9---------|

Take a lesson, from the ones who have been there


|-----------------------------------------------------|
|-----------------------------------------------------|
|-----------------------------------------------------|
|-----------------------------------------------------|
|----11----------------14--------------7----------11--|
|-9---------------12--------------5------------9------|

My brain is not damaged, but in need of some repair


|---------------------------------------------------------|
|---------------------------------------------------------|
|---------------------------------------------------------|
|---------------------------------------------------------|
|------11------------14-------------7-----------------11--|
|-9--------------12-------------5------------------9------|

Hold on to the basics, but we can change all our tactics


|--------------------------------------------------|
|--------------------------------------------------|
|--------------------------------------------------|
|--------------------------------------------------|
|-------11-------14----------------7------------11-|
|-9----------12----------------5-------------9-----|

Don’t just sit there , going crazy on your own

It’s the only way of getting out of here
It’s the only way of getting out of here

This is the modern way
Of faking it everyday
And taking it as we come
And we’re not the only ones
Is that what we used to say
This is the modern way?


|-----------------------------------------------------------------|
|-----------------------------------------------------------------|
|-----------------------------------------------------------------|
|-----------------------------------------------------------------|
|------11------14------7-------11------11------14------7-------11-|
|-9-------12------5-------9-------9-------12------5-------9-------|


|-------------------------------------------------------|
|-------------------------------------------------------|
|-------------------------------------------------------|
|-------------------------------------------------------|
|---11----------------14--------------7-------------11--|
|-9----------------12--------------5-------------9------|

I know where I’m going, and that we are in the knowing


|---------------------------------------------------|
|---------------------------------------------------|
|---------------------------------------------------|
|---------------------------------------------------|
|-----11--------------14--------------7----------11-|
|---9--------------12---------------5----------9----|

And I will stop at nothing, just to get what I want

It’s the only way of getting out of here
It’s the only way of getting out of here

This is the modern way
Of faking it everyday
And taking it as we come
And we’re not the only ones
Is that what we used to say
This is the modern way?
This is the modern way
Of faking it everyday
And taking it as we come
And we’re not the only ones
Is that what we used to say
This is the modern way?


|-----------------------------------------------------------------|
|-----------------------------------------------------------------|
|-----------------------------------------------------------------|
|-----------------------------------------------------------------|
|------11------14------7-------11------11------14------7-------11-|
|-9-------12------5-------9-------9-------12------5-------9-------|
|-----------------------------------------------------------|
|-----------------------------------------------------------|
|-----------------------------------------------------------|
|-----------------------------------------------------------|
|------11------14------7-------11------11------14------7----|
|-9-------12------5-------9-------9-------12------5-------9-|

Im not sure what version of the song i have tabbed here. Its not the album or radio
version, some words and bits might be different but apart from that i think its pretty
much the same.

To play the this songs, including Modern Way by Kaiser Chiefs by ukulele, the most crucial basic ukulele chords to learn are C chord, D chord, G chord, and Em chord.
These set you up to play a many of songs, and each of them is easy to master.

If you are looking for My Kind of Guy ukulele chords, you have visit to the right site.
You can play versatile instrument My Kind of Guy using ukulele or guitar.
This song by Kaiser Chiefs can also be played by that instruments.
=

My Kind of Guy chords has rhythm and included in Yours Truly, Angry Mob (2007) album.
You can also get another musical style, including jazz ukulele chords, country music ukulele chords, pop ukulele chords, world music ukulele chords, and rock ukulele chords here.

My Kind of Guy by Kaiser Chiefs Ukulele Chords

Think this is right :-p


E|-----8---8----8---8----8---8----8--8-------8------8-----8------8--|
B|---10---9---10---9---10---9---10---9-----10--10--9-9--10--10--9-9-|
G|--9----8---9----8---9----8---9-----8----9-------8----9-------8----|
D|------------------------------------------------------------------|
A|------------------------------------------------------------------|
E|------------------------------------------------------------------|
E|----8------8-----8-----8--|
B|--10--10--9-9--10--10--9--|
G|-9-------8----9--------8--|
D|--------------------------|
A|--------------------------|
E|--------------------------|

Well it starts as a joke
Like a stick in the spokes
Or removing the bolt of the brakes

Then the bicycle flips
Crushing ribs smashing hips
And he broke every bone in his face


E|----8------8-----8------8-----8------8-----8---8--|
B|--10--10--9-9--10--10--9-9--10--10--9-9--10----9--|
G|-9-------8----9-------8----9-------8----9------8--|
D|--------------------------------------------------|
A|--------------------------------------------------|
E|--------------------------------------------------|

Then you’re out of control
And you can’t fill the hole
That was left by the thrill of the chase

You’re a right piece of work
All the flakes go berserk
Have you forgotten how good they taste

On “taste” there’s a little guitar bit which sounds a bit like:

E|–555555555555555555555555555—| with distortion


B|--------------------------------|
G|--------------------------------|

, leading into the next bit, which is:


E|-----------------------------------------------------------------|
B|-----------------------------------------------------------------|
G|-----------------------------------------------------------------|
D|-----------------------------------------------------------------|
A|-------------------5-7--5-7--5-7--5-7-5--------------------------|
E|-8-5--8-5--8-5-7-8----------------------8-7-5--8-5--8-5--8-5-7-8-|
E|--------------------------------|
B|--------------------------------|
G|--------------------------------|
D|--------------------------------|
A|5-7--5-7--5-7--5-7-5h7h5--------|
E|-------------------------8-7-5--|

You’re my kind of guy
Cos I like your style
And you sound as horrible as me
And I don’t mind if you’re unkind
You’re reminding me of me

The next part is the solo. I, however, am rubbish at working out solos, with the pitch
and hammer ons etc, so you’ll have to be contented with the backing, which is more or
a repetition of the intro:


E|----8------8-----8------8-----8------8-----8-------8--|
B|--10--10--9-9--10--10--9-9--10--10--9-9--10--10---9-9-|
G|-9-------8----9-------8----9-------8----9--------8----|
D|------------------------------------------------------|
A|------------------------------------------------------|
E|------------------------------------------------------|
E|----8------8-----8------8-----8------8-----8---8--|
B|--10--10--9-9--10--10--9-9--10--10--9-9--10----9--|
G|-9-------8----9-------8----9-------8----9------8--|
D|--------------------------------------------------|
A|--------------------------------------------------|
E|--------------------------------------------------|

As the bicycle race
Gathers speed, gathers pace
And you feel that you’re going too fast

There’s a word to the wise
You should take some advice
Cos the nice guys always finish last

Again, on “last”, crazy distorted:

E|–555555555555555555555555555—|


B|--------------------------------|
G|--------------------------------|

is heard. Then:


E|-----------------------------------------------------------------|
B|-----------------------------------------------------------------|
G|-----------------------------------------------------------------|
D|-----------------------------------------------------------------|
A|-------------------5-7--5-7--5-7--5-7-5--------------------------|
E|-8-5--8-5--8-5-7-8----------------------8-7-5--8-5--8-5--8-5-7-8-|
E|---------------------------------|
B|---------------------------------|
G|---------------------------------|
D|---------------------------------|
A|5-7--5-7--5-7--5-7-5h7h5---------|
E|-------------------------8-7-5/--|

You’re my kind of guy
Cos I like your style
And you sound as horrible as me
And I don’t mind if you’re unkind
You’re reminding me of me
You’re my kind of guy
Cos I like your style
And you sound as horrible as me
And heads will roll
As it takes its toll
On you and me-e-e-e-e-e

Play Em ad nauseum (listen for the 1,2,123 rhythm), and then this comes in at (3,43):


E|---7---7---7---7---7---7---7---7---7-7-7---7-7--777--|
B|-8---8---8---8---8---8---8---8---8-------8-----8-----|

and then it all grinds to a halt. The End

Hope it’s right.

To play the most songs, including My Kind of Guy by Kaiser Chiefs by ukulele, the most important basic ukulele chords to learn are C chord, D chord, G chord, and Em chord.
These set you up to play a a lot of songs, and each of them is easy to master.