If you are looking for Slush Puppy ukulele chords, you’ve visit to the right site.
You can play versatile instrument Slush Puppy using ukulele or guitar.
This song by King Krule can also be played by that instruments.
=

Slush Puppy chords has rhythm and included in The Ooz (2017) album.
You can also get other musical style, including jazz ukulele chords, country music ukulele chords, pop ukulele chords, world music ukulele chords, and rock ukulele chords here.

Slush Puppy by King Krule Ukulele Chords



e—x—–x—–x—–x———————–
B—2—–2—–4—–4———————–
G—2—–1—–4—–3———————–
D—4—–2—–6—–4———————–
A—2—–1—–4—–2———————–
E—x—–x—–x—–x———————–


e—x—–x—–x—–x———————–
B—7—–4—–9—–9———————–
G—6—–4—–8—–8———————–
D—8—–6—–9—–9———————–
A—6—–4—–8—–7———————–
E—x—–x—–x—–x———————–


Don’t you dare baby, dare baby, dare

Face me already, replace me already


Nothing’s working with me

Nothing’s working with me


Don’t you dare baby, dare baby, dare

Face me already, replace me already


Don’t be scared, don’t be scared, don’t be scared
Deface me already, I’m a waste, baby
And I’m alone
So you come over
N.C.
I’m down under sea
N.C.
Nothings working with me
N.C.
Nothings working with me, etc.

To play the this songs, including Slush Puppy by King Krule by ukulele, the most important basic ukulele chords to learn are C chord, D chord, G chord, and Em chord.
These set you up to play a ton of songs, and each of them is easy to learn.

If you are searching for A Lizard State ukulele chords, you have come to the right place.
You can play versatile instrument A Lizard State using ukulele or guitar.
This song by King Krule can also be played by that instruments.
=

A Lizard State chords has rhythm and included in 6 Feet Beneath the Moon (2013) album.
You can also get other musical genres, including jazz ukulele chords, country music ukulele chords, pop ukulele chords, world music ukulele chords, and rock ukulele chords here.

A Lizard State by King Krule Ukulele Chords



e|----------------------------------------------------|
B|----------------------------------------------------|
G|----------------------------------------------------|
D|----------------------------------------------------|
A|----------------------------------------------------|
E|--7--7--10--10--7--7--9--9--3--3--6--6--3--5--4--3--|


Main Progression


e|----7------------3----6----|
B|----7----6-------3----6----|
G|----7----5-------3----6----| (11x)
D|----7----6-------3----6----|
A|----9----5-------5----8----|
E|----7------------3----6----|

[Pre Chorus]


e|---7---------3-3----6-6--|
B|---7---6-----3-3----6-6--|
G|---7---5-----3-3----6-6--|
D|---7---6-----3-3----6-6--|
A|---9---5-----5-5----8-8--|
E|---7---------3-3----6-6--|



e|-3--5--6-------------------3--5--6-------------x--|
B|-3--5--6-------------------3--5--6------------x---|
G|-3--5--6-------------------3--5--6-----------x----| (2x)
D|-3--5--6-------------------3--5--6----------------|
A|-5--7--8-------------------5--7--8----------------|
E|-3--5--6-------------------3--5--6----------------|

[Em(add9)]


e|------------|
B|--7-----7---|
G|--7-----7---| (8x)
D|--7-----5---|
A|--------7---|
E|--7---------|


e|-------------7----7-----10--------7----10----7----10----7------5------7---------|
B|-12---11-----7----9-----12--------7----12----7----12----7------7------7-----10--|
G|-11---10-----7----8-----11--------7----11----7----11----7------6------7-----9---|
D|-12---11-----7----7-----12--------9----12----9----12----9------7------7-----10--|
A|-11---10-----9----9-----10--------7----10----7----10----7------5------9-----9---|
E|-------------7----7---------------------------------------------------7---------|

[Gm(add6)]


e|-------------------------------7----3---|
B|---10-----10-------------------7----5---|
G|---11-----9--------------------7----3---|
D|---11-----10-------------------9----5---|
A|----------9---9-9--10--9-10--7-7--------|
E|-9-10-------------------------------3---|



e|--7-------------------7------------------7---7---10--9---10--9---10--9---10--9---7---5----|
B|--7----7----7----7----7----7----11--10---7---9---12--11--12--11--12--11--12--11--7---7----|
G|--7----7----7----7----7----7----12--11---7---8---11--10--11--10--11--10--11--10--7---6----|
D|--7----5----7----5----7----5----11--10---7---7---12--11--12--11--12--11--12--11--9---7----|
A|--9----7---------7----9----7----12--11---9---9---10--9---10--9---10--9---10--9---7---5----|
E|--7---------7---------7------------------7---7--------------------------------------------|


I don’t care about sunny days
Gonna keep me out of sight right under the shade
Gonna keep me out of sight right under the shade
It’s gonna be like this and that’s alright if that’s OK
Is that OK?
Myself repeats these lines in my head I’m dead.
Tired of the sht you caused, fking bch
You don’t know when to stop
You’re a bunch of fat bches, motherfking fat bches

I don’t want to be trapped in the black of your heart
And I’m going to fk things over ’cause that’s a start
Well, if I can’t have her, then no one can

But baby what am I to do?
I’ve given up on loving you
I know it’s not nothing new
So please do what I ask you to
And please do what I want of you
It’s just not fair, baby blue, girl it’s true
One day I’m gonna have you
But for now I don’t care
I still feel the pain
Of you not loving me the same

There was not much that I could do
Not much that I could do
(Trapped in a Lizard State)
Well I got you on my back
But I’m not gonna crack like you cracked
You’re a fking pussy boy woah woah
Slipping up on my humble pie
You got no legs to keep anywhere near my height
So don’t try and get near my height
Don’t try keeping me out of the way
I wanna see what you got to say
I wanna hear what you got to say
If that’s OK, if that’s not OK
Well what’s OK?

I don’t want to be trapped in the black of your heart
And now I’m gonna make it clear and girl I’ll tear you apart
From the inside to the out

Baby what am I to do?
I’ve given up on loving you
I know it’s not nothing new
So please do what I ask you to
And please do what I want of you
It’s just not fair, baby blue, and girl it’s true
One day I’m gonna have you
But for now I don’t care
I still feel the pain
Of you not loving me the same

But girl what was I supposed to do?
Yeah I was so hung up on loving you
And girl believe me this is something new
‘Cause all I will do
Is girl whatever I have to do
They all knifed me in the back and girl I can’t believe
It’s slipping away like that

To play the most songs, including A Lizard State by King Krule by ukulele, the most important basic ukulele chords to learn are C chord, D chord, G chord, and Em chord.
These set you up to play a many of songs, and each of them is easy to master.

If you are searching for A Lizard State ukulele chords, you have visit to the right place.
You can play versatile instrument A Lizard State using ukulele or guitar.
This song by King Krule can also be played by that instruments.
=

A Lizard State chords has rhythm and included in 6 Feet Beneath the Moon (2013) album.
You can also get other musical style, including jazz ukulele chords, country music ukulele chords, pop ukulele chords, world music ukulele chords, and rock ukulele chords here.

A Lizard State by King Krule Ukulele Chords


e|----------------------------------------------------|
B|----------------------------------------------------|
G|----------------------------------------------------|
D|----------------------------------------------------|
A|----------------------------------------------------|
E|--7--7--10--10--7--7--9--9--3--3--6--6--3--5--4--3--|


Main Progression


e|----7------------3----6----|
B|----7----6-------3----6----|
G|----7----5-------3----6----| (11x)
D|----7----6-------3----6----|
A|----9----5-------5----8----|
E|----7------------3----6----|

[Pre Chorus]


e|---7---------3-3----6-6--|
B|---7---6-----3-3----6-6--|
G|---7---5-----3-3----6-6--|
D|---7---6-----3-3----6-6--|
A|---9---5-----5-5----8-8--|
E|---7---------3-3----6-6--|



e|-3--5--6-------------------3--5--6-------------x--|
B|-3--5--6-------------------3--5--6------------x---|
G|-3--5--6-------------------3--5--6-----------x----| (2x)
D|-3--5--6-------------------3--5--6----------------|
A|-5--7--8-------------------5--7--8----------------|
E|-3--5--6-------------------3--5--6----------------|

[Em(add9)]


e|------------|
B|--7-----7---|
G|--7-----7---| (8x)
D|--7-----5---|
A|--------7---|
E|--7---------|


e|-------------7----7-----10--------7----10----7----10----7------5------7---------|
B|-12---11-----7----9-----12--------7----12----7----12----7------7------7-----10--|
G|-11---10-----7----8-----11--------7----11----7----11----7------6------7-----9---|
D|-12---11-----7----7-----12--------9----12----9----12----9------7------7-----10--|
A|-11---10-----9----9-----10--------7----10----7----10----7------5------9-----9---|
E|-------------7----7---------------------------------------------------7---------|

[Gm(add6)]


e|-------------------------------7----3---|
B|---10-----10-------------------7----5---|
G|---11-----9--------------------7----3---|
D|---11-----10-------------------9----5---|
A|----------9---9-9--10--9-10--7-7--------|
E|-9-10-------------------------------3---|



e|--7-------------------7------------------7---7---10--9---10--9---10--9---10--9---7---5----|
B|--7----7----7----7----7----7----11--10---7---9---12--11--12--11--12--11--12--11--7---7----|
G|--7----7----7----7----7----7----12--11---7---8---11--10--11--10--11--10--11--10--7---6----|
D|--7----5----7----5----7----5----11--10---7---7---12--11--12--11--12--11--12--11--9---7----|
A|--9----7---------7----9----7----12--11---9---9---10--9---10--9---10--9---10--9---7---5----|
E|--7---------7---------7------------------7---7--------------------------------------------|


I don’t care about sunny days
Gonna keep me out of sight right under the shade
Gonna keep me out of sight right under the shade
It’s gonna be like this and that’s alright if that’s OK
Is that OK?
Myself repeats these lines in my head I’m dead.
Tired of the sht you caused, fking bch
You don’t know when to stop
You’re a bunch of fat bches, motherfking fat bches

I don’t want to be trapped in the black of your heart
And I’m going to fk things over ’cause that’s a start
Well, if I can’t have her, then no one can

But baby what am I to do?
I’ve given up on loving you
I know it’s not nothing new
So please do what I ask you to
And please do what I want of you
It’s just not fair, baby blue, girl it’s true
One day I’m gonna have you
But for now I don’t care
I still feel the pain
Of you not loving me the same

There was not much that I could do
Not much that I could do
(Trapped in a Lizard State)
Well I got you on my back
But I’m not gonna crack like you cracked
You’re a fking pussy boy woah woah
Slipping up on my humble pie
You got no legs to keep anywhere near my height
So don’t try and get near my height
Don’t try keeping me out of the way
I wanna see what you got to say
I wanna hear what you got to say
If that’s OK, if that’s not OK
Well what’s OK?

I don’t want to be trapped in the black of your heart
And now I’m gonna make it clear and girl I’ll tear you apart
From the inside to the out

Baby what am I to do?
I’ve given up on loving you
I know it’s not nothing new
So please do what I ask you to
And please do what I want of you
It’s just not fair, baby blue, and girl it’s true
One day I’m gonna have you
But for now I don’t care
I still feel the pain
Of you not loving me the same

But girl what was I supposed to do?
Yeah I was so hung up on loving you
And girl believe me this is something new
‘Cause all I will do
Is girl whatever I have to do
They all knifed me in the back and girl I can’t believe
It’s slipping away like that

To play the most songs, including A Lizard State by King Krule by ukulele, the most crucial basic ukulele chords to learn are C chord, D chord, G chord, and Em chord.
These set you up to play a many of songs, and each of them is easy to learn.