If you are searching for Liebe ukulele chords, you already visit to the best site.
You can play versatile instrument Liebe using ukulele or guitar.
This song by Kraftklub can also be played by that instruments.
=

Liebe chords has rhythm and included in Mit K (2012) album.
You can also find another musical genres, including jazz ukulele chords, country music ukulele chords, pop ukulele chords, world music ukulele chords, and rock ukulele chords here.

Liebe by Kraftklub Ukulele Chords

Intro:


|---------|---------|---------|----------------|
|---------|---------|---------|----------------|
|---------|---------|---------|----------------|
|-9-------|-------7-|-9-------|----------------|
|-------9-|---------|-------9-|---------7-9-7-9|
|---------|-7--7----|---------|-10--10---------|

[1+2+3+4] [1+2+3+4] [1+2+3+4] [+] [+][+]
Verse:

Gitarre 1 (Karl):


|-------------------------|-------------------------|
|-------------------------|-12-12-12-10-10-10-------|
|-------------------11-11-|-------------------11-11-|
|-9--9--9--12-12-12-------|-------------------------|
|-------------------------|-------------------------|
|-------------------------|-------------------------|

[+] [+] [+] [+] [+] [+] [+] [+]


|-------------------------|-------------------------|
|-------------------------|-------------------------|
|-------------------11-11-|-9--9--9-----9--11-9-----|
|-9--9--9--12-12-12-------|----------12----------12-|
|-------------------------|-------------------------|
|-------------------------|-------------------------|

[+] [+] [+] [+] [+] [+][+][+]
Gitarre 2 (Steffen):


|-------------------------|-------------------------|
|-------7-----------7-----|-------7--------7-----7--|
|-------7-----------7-----|-------7--------7-----7--|
|-------------------------|-------------------------|
|-------------------------|-------------------------|
|-------------------------|-------------------------|

[+] [+] [+] [+] [+] [+] [+] [+]


|-------------------------|-------------------------|
|-------7-----------7-----|-------5--------5-----5--|
|-------7-----------7-----|-------4--------4-----4--|
|-------------------------|-------------------------|
|-------------------------|-------------------------|
|-------------------------|-------------------------|

[+] [+] [+] [+] [+] [+][+][+]
Pre-Chorus:

Den Pre-Chorus spielen Kraftklub live anders als auf der Adonis Maximus.
Hier also beide Versionen:

Adonis Maximus:


|-------------------------|-------------------------|
|-------------------------|-------------------------|
|-------------------------|-------------------------|
|-------------------------|-------------------------|
|-------------5-----------|-------------5--5--4--5--|
|----7-----7-----7-----5--|----5-----5--------------|

[+] [+] [+] [+] [+] [+] [+] [+]


|-------------------------|-------------------------|
|-------------------------|-------------------------|
|-------------------------|-------------------------|
|-------------------------|-------------------------|
|-------------5-----------|-------------5--5--5--7--|
|----7-----7-----7-----5--|----5-----5--------------|

[+] [+] [+] [+] [+] [+][+][+]
Live:
( Tab from: http://www.guitartabs.cc/tabs/k/kraftklub/liebe_tab.html )


|-------------------------|-------------------------|
|-------------------------|-------------------------|
|-------------------------|-------------------------|
|-------------------------|-------------------------|
|-------------9----7---9--|-5-----------------------|
|-7--------7--------------|----7--------------------|

[+] [+] [+] [+] [+] [+] [+] [+]


|-------------------------|-------------------------|
|-------------------------|-------------------------|
|-------------------------|-------------------------|
|-------------------------|-7-----------------------|
|-------------9----7---9--|----7--------------------|
|-7--------7--------------|-------------------------|

[+] [+] [+] [+] [+] [+] [+] [+]


|-------------------------|-------------------------|
|-------------------------|-------------------------|
|-------------------------|-------------------------|
|-------------------------|-------------------------|
|-------------9----7---9--|-5-----------------------|
|-7--------7--------------|----7--------------------|

[+] [+] [+] [+] [+] [+] [+] [+]


|-------------------------|-------------------------|
|-------------------------|-------------------------|
|-------------------------|-------------------------|
|-7----6----7----9----7---|--6----------------------|
|-------------------------|-------7-----------------|
|-------------------------|-------------------------|

[+] [+] [+] [+] [+] [+][+][+]
Refrain:


|-------------------------|-------------------------|
|-------------------------|-------------------------|
|-------------------------|-7--7--7--7--7--7--7--7--|
|-9--9--9--9--9--9--9--9--|-7--7--7--7--7--7--7--7--|
|-9--9--9--9--9--9--9--9--|-5--5--5--5--5--5--5--5--|
|-7--7--7--7--7--7--7--7--|-------------------------|

[+] [+] [+] [+] [+] [+] [+] [+]


|-------------------------|-------------------------|
|-------------------------|-------------------------|
|-8---5-7--------5-----5--|-9---5-7--------5-----5--|
|-------------------------|-------------------------|
|-6---3-5--------3-----3--|-7---3-5--------3-----3--|
|-------------------------|-------------------------|

[+] [+] [+] [+] [+] [+][+][+]
Zwischenteil:

Gitarre 1 (Karl):


|-------------------------|-------------------------|
|-------------------------|-------------------------|
|-7--4--4--7--4--4--7--4--|-6--4--4--6--4--4--6--4--|
|-------------------------|-------------------------|
|-------------------------|-------------------------|
|-------------------------|-------------------------|

[+] [+] [+] [+] [+] [+] [+] [+]


|-------------------------|-------------------------|
|-5--------5--------5-----|-------------------------|
|----4--4-----4--4-----4--|-4--------4--------4-----|
|-------------------------|----5--5-----5--5-----5--|
|-------------------------|-------------------------|
|-------------------------|-------------------------|

[+] [+] [+] [+] [+] [+][+][+]
Gitarre 2 (Steffen):


|-------------------------|-------------------------|
|-------------------------|-------------------------|
|-------------------------|-------------------------|
|-------------------------|-------------------------|
|-9--9--9--9--9--9--9--9--|-7--7--7--7--7--7--7--7--|
|-7--7--7--7--7--7--7--7--|-5--5--5--5--5--5--5--5--|

[+] [+] [+] [+] [+] [+] [+] [+]


|-------------------------|-------------------------|
|-------------------------|-------------------------|
|-------------------------|-------------------------|
|-7--7--7--7--7--7--7--7--|-------------------------|
|-5--5--5--5--5--5--5--5--|-5--5--5--5--5--5--5--5--|
|-------------------------|-3--3--3--3--3--3--3--3--|

[+] [+] [+] [+] [+] [+][+][+]

To play the most songs, including Liebe by Kraftklub by ukulele, the most crucial basic ukulele chords to learn are C chord, D chord, G chord, and Em chord.
These set you up to play a a lot of songs, and each of them is easy to master.