If you are looking for Dying Victims ukulele chords, you’ve visit to the best place.
You can play versatile instrument Dying Victims using ukulele or guitar.
This song by Kreator can also be played by that instruments.
=

Dying Victims chords has rhythm and included in Endless Pain (1985) album.
You can also get another musical style, including jazz ukulele chords, country music ukulele chords, pop ukulele chords, world music ukulele chords, and rock ukulele chords here.

Dying Victims by Kreator Ukulele Chords


Song: Dying Victims
Album: Endless Pain
Year: 1985

Tabbed by Jori Merilainen, send any corrections, suggestions
or questions to: Thrasher_0682@yahoo.com

Standard tuning EADGBe

Here’s another one from Kreator’s Endless Pain, and it’s also
one of the best from the album. What more can I say?

1a) Intro: (w/clean tone)


e|---------------------| |------------------------|
B|---------------------| |------------------------|
G|--0---0-----------2--| |------0-----0--------2--|
D|----0----0------2----| |----2-----0--------2----|
A|-----------3--0------| |--3-----2--------0------|
E|---------------------| |--------------3---------|

|Intro rhytm: (w/dist.)


e|---------------------| |------------------------|
B|---------------------| |------------------------|
G|--------------2------| |--5-----4--------2------|
D|--------------2------| |--5-----4-----5--2------|
A|--------------0------| |--3-----2-----5--0------|
E|---------------------| |--------------3---------|

[1b)]


e|---------------------------------|
B|------------------------1--------|
G|------0-----0--------2----2------|
D|----2-----0--------2--------2----|
A|--3-----2--------0------------0--|
E|--------------3------------------|

2) Riff 1:


G|---------------------------------|
D|------------------------------6--|
A|------8/7-----7/6-----8/7-----6--|
E|--0-0-----0-0-----0-0-----0-0-8--|

. . . . . . . .

3) Verse riff: (Play this 3 times… 4th time play this)


G|------------------------------------| |------------------------|
D|------------------------------------| |------------------2--4--|
A|---------------------------4--5--4--| |------------------0--2--|
E|--000000000000000000000000-2--3--2--| |--000000000000000-------|

…………………… ……………

4) Pre-Chorus:


G|-------------------------------------------------------------------------|
D|--7-----------------5----------------------------------------------------|
A|--5-55555555555555553-33333333333333332-----------------------------2-2--|
E|--------------------------------------0-00000000000000000000000000000-0--|

……………. ……………. ……………………….. .

5) Chorus:


G|--------------------------------------------------------------------|
D|--4-------4-------4-------4-----------------------------------------|
A|--2-2222222-2222222-2222222-2222222-------2-------2-------2---------|
E|----------------------------------0-0000000-0000000-0000000-000000--|

…… …… …… …… …… ……. …… ……

6) Solo rhytm:


G|-----------------------------------------------------------|
D|--2------2------2------2------4------4------5------7-------|
A|--0--0-0-0--0-0-0--0-0-0--0-0-2--0-0-2--0-0-3--0-0-5--0-0--|
E|-----.-.----.-.----.-.----.-.----.-.----.-.----.-.----.-.--|

7a) Outro:


G|---------------------------------------------|
D|----------------10--9----------------12--11--|
A|--2------2-------8--7--5------5------10---9--|
E|--0--0-0-0-------------3--3-3-3--------------|

. . . .
[7b)]


G|-----------------------------------------------------------------|
D|--------------------------10--9--------------------------12--11--|
A|--2-------2-------2--------8--7--5-------5-------5-------10---9--|
E|--0-0-0-0-0-0-0-0-0-0-0-0--------3-3-3-3-3-3-3-3-3-3-3-3---------|

. . . . . . . . . . . . . . . . . .

End with E5 (022xxx)

To play the this songs, including Dying Victims by Kreator by ukulele, the most important basic ukulele chords to learn are C chord, D chord, G chord, and Em chord.
These set you up to play a many of songs, and each of them is easy to master.

If you are looking for Agents of Brutality ukulele chords, you already visit to the best place.
You can play versatile instrument Agents of Brutality using ukulele or guitar.
This song by Kreator can also be played by that instruments.
=

Agents of Brutality chords has rhythm and included in Coma of Souls (1990) album.
You can also get other musical genres, including jazz ukulele chords, country music ukulele chords, pop ukulele chords, world music ukulele chords, and rock ukulele chords here.

Agents of Brutality by Kreator Ukulele Chords

KREATOR – AGENTS OF BRUTALITY
>From the album Coma Of Souls (1990)

Tabbed by Tuomas Mustonen – tuomas.mustonen@mail.htk.fi

Again, it’s probably impossible to understand this correctly if you’re not
familiar with the song, especially some of those more intricate lines. Plus figure
out the palm mutes & rest yourself. I couldn’t get the solo 100right, but sounds
good enough to me 🙂

Intro

3x

e————————————
b————————————
g————————————
d————————————
a-2—————–4—–4-5-4-5-7–
e-0—7-6—/——-2—————-

long slide

e——————————
b——————————
g——————————
d———————-2——-
a-9——8——4——3–3-3–
e-6–6-6-6–6-6-4–4-4———
e———————————————————————–
b———————————————————————–
g———————————————————————–
d—–4-3—————————————————————
a-2—2-1——1-1-4—–4-5-4-5-7—-2—6-7———-4—–4-5-4-5-7–
e-0—————-2——————0—4-5——5-5-2—————-
e—————————————————————————
b—————————————————————————
g—————————————————————————
d—–4-3——————4—————————–2——————
a-2—2-1——1-1-4———7-5-4–9——8——4——3—–let ring—–
e-0—————-2—–2———-6–6-6-6–6-6-4–4-4——————–
e——————
b——————
g——————
d———3-2-0-2–
a-5-3-2-0———-
e——————
e——————————————————————
b——————————————————————
g——————————————————————
d——————-5-4-2—3—————————–3-2-0-2–
a-2——–2——–3-2-0-4-1-3-2——–2——–5-3-2-0———-
e-0-000000-0-000000——-2—1-0-000000-0-000000——————
e———————————————————————–
b———————————————————————–
g———————————————————————–
d—————–1077710777——————————————–
a-7777777710777777———-1077710777666666667666666696669666-5-3-2-0–
e———————————————————————–

Verse

e————————————————————————
b————————————————————————
g————————————————————————
d——————————6—————————————–
a-2——–2——–2——–5-4—5-2——–2——–2——–5-3-2-0–
e-0-000000-0-000000-0-000000-3—–3-0-000000-0-000000-0-000000———-
e————————————————————————
b————————————————————————
g———————————-5————————————-
d——————————5—3————————————-
a-2——–2——–2——–2-3—–2——–2——–2——–5-3-2-0–
e-0-000000-0-000000-0-000000-0——-0-000000-0-000000-0-000000———-
e————————————————————————
b————————————————————————
g——————————6—————————————–
d-2——–2——–2——–5-4—5-2——–2——–2—————–
a-0-000000-0-000000-0-000000-3—–3-0-000000-0-000000-0-000000-5-3-2-0–
e————————————————————————
e————————————————————————
b————————————————————————
g———————————-5————————————-
d——————————5—3————————————-
a-2——–2——–2——–2-3—–2——–2——–2——–5-3-2-0–
e-0-000000-0-000000-0-000000-0——-0-000000-0-000000-0-000000———-

“MANIC!! PANIC!!”

e————————————————–
b————————————————–
g————————————————–
d————————————————–
a—-222333——————444777444222222002333-
e-000——555333333333333000———————-

( Tab from: http://www.guitartabs.cc/tabs/k/kreator/agents_of_brutality_tab.html )
Repeat intro

Frank solo rhythm

e———————————————————————–
b———————————————————————–
g———————————————————————–
d—————4–5—————2————————————
a-2————-2–3—————0————–3–2——————
e-0———————————————–1–0——————

Then my “version” of Frank’s solo:

e—————————————————-14—-15—-17—-17^—–15———
b————10—-12—-15^-15—-12—-10—-15^——————————–17——
g—————————————————————————————–
d-9—-12———————————————————————————
a—————————————————————————————–
e—————————————————————————————–
e———————12–15–18–15–14———————————
b—————–12———————-17–16–17^—–16–13———
g————-12———————————————————
d————————————————————————
a———14————————————————————-
e-12–15—————————————————————–
e—–7–8–10–8–7–5–3–5–7–5—————————————////-dive–
b-10———————————7–h8p7t8p7p5t10p5–9p7h9p7h———————–
g—————————————————————-9/———————
d—————————————————————————————
a————————————”””””””’?——————–
e—————————————————————————————
I————————————I

this part is IMO almost impossible to
make sense of 🙂

e————————————————————————
b-h8p7t8p7p5h8p7t8p7p5h8p7t8p7p5h10p8t10p8p7—2x————————
g————————————————————————
d————————————————————————
a————————————————————————
e————————————————————————
e————————————————————————
b-h10p8h10p8p7h10p8h10p8p7h10p8h10p8p7h12p10h12p10p8-2x——————
g————————————————————————
d————————————————————————
a————————————————————————
e————————————————————————
e————————————————————————
b-h12p10h12p10p8h12p10h12p10p8h12p10h12p10p8h13p10h13p10p8—————
g————————————————————————
d————————————————————————
a————————————————————————
e————————————————————————
e————————————————————————
b-h12p10h12p10p8h13p10h12p10p8h15p10h12p10p8h13p10h13p10p8-15^—-15—–
g————————————————————————
d————————————————————————
a————————————————————————
e————————————————————————
e————————————————————————
b—————-12—————-10——–10/12–15–15^————–
g-14——-12-14———————————————————
d————————————————————————
a————————————————————————
e————————————————————————

e————————————————————-
b————————————————————-
g————————————————————-
d-5–4–2—–3—–6–5——–4————-3-2-0-2———
a-3–2–0–4–1–3–4–3–6–5–2–4–5-3-2-0———2——-
e———-2—–1——–4–3—–2——————0——-

To play the most songs, including Agents of Brutality by Kreator by ukulele, the most important basic ukulele chords to learn are C chord, D chord, G chord, and Em chord.
These set you up to play a ton of songs, and each of them is easy to learn.

If you are searching for Command of the Blade ukulele chords, you have come to the best site.
You can play versatile instrument Command of the Blade using ukulele or guitar.
This song by Kreator can also be played by that instruments.
=

Command of the Blade chords has rhythm and included in Pleasure to Kill (1986) album.
You can also get another musical genres, including jazz ukulele chords, country music ukulele chords, pop ukulele chords, world music ukulele chords, and rock ukulele chords here.

Command of the Blade by Kreator Ukulele Chords


Song: Command Of The Blade
Album: Pleasure To Kill
Year: 1986

Tabbed by Jori Merilainen, send any corrections, suggestions
or questions to: Thrasher_0682@yahoo.com

Tune down one whole step (DGCFAd)

The thrashing just keeps on getting better!!
One of my all-time favorites from the kings of thrash,
the one and only KREATOR 🙂

1a) Intro:


F|-------------------|------|
C|-------------------|------|
G|-------------------|-%%-|
D|--4444554477445544-|------|

…………….

1b): (repeat 2x)


F|--------------------------------|----|
C|--------------------------------|----|
G|-----2---3---5---3---2---3-2----|-%-|
D|--000--0---0---0---0---0-----3~-|----|

… . . . . .

2) Fill 1:


F|--------------|
C|--------------|
G|--4--5--7--5--|
D|--2--3--5--3--|

3a) Verse riff: “Mist is falling…”


F|-------------------------------------------------|
C|--8-------9-8-------6-8---------11-10-10-11--10--|
G|--6-6666667-6-6666664-6-66666666-9--8--8--9---8--|
D|-------------------------------------------------|

…… …… ……..

3b) Verse riff 2: “Flesh and bones, scared to scream…”


F|---------------------------------------------|
C|--3-------4-3-------4-3-------4-------5-5-5--|
G|--1-1111112-1-1111112-1-1111112-4-4-4-3-3-3--|
D|--------------------------------2-2-2--------|

…… …… ……
4) Chorus: “Command of the blade!”


F|--------------------------------------------------------|
C|--7---3--5-------------------7---3--5-------------------|
G|--5---1--3-------------------5---1--3-------------------|
D|------------0000000000000000----------3333333333333333--|

……………. …………….

5) Post-chorus: “DEATH!!!”


F|----------------------------------------------------------------------|
C|--------------4-5-------------6-7-------------8-9-----10-11----12-13--|
G|--------------2-3-------------4-5-------------6-7-----8--9-----10-11--|
D|--000000000000----000000000000----000000000000----0000-----0000-------|

………… ………… ………… …. ….

6a) Solo rhytm:


F|-------------------|------------------|------------------|-------------------|
C|-------------------|------------------|------------------|-------------------|
G|--0000000000000000-|-0000000000000000-|-0000000000000000-|-0000000000000000--|
D|--................-|-................-|-................-|-................--|

[6b)]


F|-------------------|------------------|------------------|-------------------|
C|-------------------|------------------|------------------|-------------------|
G|--2222222222222222-|-2222222222222222-|-2222222222222222-|-2222222222222222--|
D|--................-|-................-|-................-|-................--|

6c)


F|-------------------|------------------|------------------|-------------------|
C|-------------------|------------------|------------------|-------------------|
G|--4444444444444444-|-4444444444444444-|-4444444444444444-|-4444444444444444--|
D|--................-|-................-|-................-|-................--|

[6d)]


F|-------------------|------------------|------------------|-------------------|
C|-------------------|------------------|------------------|-------------------|
G|--6666666666666666-|-6666666666666666-|-6666666666666666-|-6666666666666666--|
D|--................-|-................-|-................-|-................--|

End with:


F|------|

C|–10–|
G|—8–|


D|------|

7) Post-solo:


F|----------------------------|
C|--7-7-7-7-7-7-7-7-7-8-10-8--|
G|--5-5-5-5-5-5-5-5-5-6--9-6--|
D|----------------------------|

8a) Interlude: “When you die by his blade…”


F|----------------------------|
C|--------------------8-10-8--|
G|--5555555555555555556--8-6--|
D|--..................--------|

8b)


F|---------------------------|
C|--------------------6-8-6--|
G|--3333333333333333334-6-5--|
D|--..................-------|

Play 7) again 2x and end with:
F|—–|
C|–7–|
G|–5–|
D|—–|

Then play chorus again and end with intro,
and replace fill 1 with…
9) Ending:


F|-----------------|
C|-----------------|
G|--4--5--7--4--2--|
D|--2--3--5--2--0--|

THE END.

To play the most songs, including Command of the Blade by Kreator by ukulele, the most crucial basic ukulele chords to learn are C chord, D chord, G chord, and Em chord.
These set you up to play a many of songs, and each of them is easy to master.

If you are looking for Tyranny ukulele chords, you’ve come to the right place.
You can play versatile instrument Tyranny using ukulele or guitar.
This song by Kreator can also be played by that instruments.
=

Tyranny chords has rhythm and included in Endorama (1999) album.
You can also get other musical genres, including jazz ukulele chords, country music ukulele chords, pop ukulele chords, world music ukulele chords, and rock ukulele chords here.

Tyranny by Kreator Ukulele Chords

Tuning: D tuning (all strings down a full step)

Riff 1
Guitar 1
d|——————————————————-|
A|——————————————————-|
F|—————9-9————————————-|
C|-9–9———-7-7——-1010——–9-9-9-1010–12-12-|
G|-7–7———-7-7——–8-8——–7-7-7–8-8–10-10-|
D|-7–7———————8-8——–7-7-7–8-8–10-10-|

Guitar 2
d|——————————————————-|
A|——————————————————-|
F|—————9-9————————————-|
C|-9–9———-7-7—-7—7-7–7-7-7-9-9-9-1010–12-12-|
G|-7–7—5-7-5——-7—7————7-7-7–8-8–10-10-|
D|————————————-7-7-7–8-8–10-10-|

Guitar 1
d|—————————————————|
A|—————————————————|
F|—————9-9——————-6-6-6-7-7—–|
C|-9–9———-7-7——-1010——–4-4-4-5-5-5-7-|
G|-7–7———-7-7——–8-8——–4-4-4-5-5-3-5-|
D|-7–7———————8-8———————-|

Guitar 2
d|—————————————————|
A|—————————————————|
F|—————9-9——————-6-6-6-7-7-7—|
C|-9–9———-7-7—-7–1010——–4-4-4-5-5–10-|
G|-7–7—5-7-5——-7—7-8-8——–4-4-4-5-5—–|
D|————————–8-8———————-|

Riff 2
Guitar 1
d|————————————|
A|————————————|
F|————————————|
C|-9–9-9-9-9-9—————9——-|
G|-7–7-7-7-7-7-1210-10101010-7-10-12-|
D|————–10-8–8-8-8-8—-8-10-|

d|————————————|
A|————————————|
F|————————————|
C|————————————|
G|-12-12-12-12-14-12-9–9-9-9-9-10-12-|
D|-10-10-10-10-12-10-7–7-7-7-7–8-10-|

Guitar 2 x3
d|—————–|—————–|
A|—————–|—————–|
F|———-7——|———-7——|
C|-9—-9——-10-|-9—-9—–10-9-|
G|—-7—7—7—-|—-7—7——–|
D|—————–|—————–|

Bass riff

Riff 2a [Verse 2nd part]
d|——-|
A|——-|
F|——-|
C|-4-5-7-|
G|-2-3-5-|
D|——-|

d|————————————|
A|————————————|
F|————————————|
C|-9–9-9-9-9-9—————9——-|
G|-7–7-7-7-7-7-1210-10101010-7-10-12-|
D|————–10-8–8-8-8-8—-8-10-|

d|————————————|
A|————————————|
F|————————————|
C|————————————|
G|-12-12-12-12-12-10-9–9-9-9-9-10-12-|
D|-10-10-10-10-10–8-7–7-7-7-7–8-10-|

d|————————————|
A|————————————|
F|————————————|
C|-9–9-9-9-9-9—————9——-|
G|-7–7-7-7-7-7-1210-10101010-7-10-12-|
D|————–10-8–8-8-8-8—-8-10-|

d|—————————————|
A|—————————————|
F|—————————————|
C|—————————————|
G|-12-12-12-12-12-10-9–9-9-9-9-10-12-10-|
D|-10-10-10-10-10–8-7–7-7-7-7–8-10–8-|

Play Riff 1 and use this for the 2nd ending:
d|—————–|
A|—————–|
F|-6-6-6-7-7-7-9-9-|
C|-4-4-4-5-5-5-7-7-|
G|-4-4-4-5-5-5-7-7-|
D|—————–|

Play Riff 2
Play Riff 2a
Play Riff 1 and use this for the 2nd ending:
d|—————–|
A|—————–|
F|-6-6-6-7-7-7-9-9-|
C|-4-4-4-5-5-5-7-7-|
G|-4-4-4-5-5-5-7-7-|
D|—————–|

And use this for the final chord:
d|—–|
A|—–|
F|—–|
C|–9–|
G|–7–|
D|–7–|

During interlude, this chord is played:
d|—————–|
A|—————–|
F|—————–|
C|–9————–|
G|–7———-3-5-|
D|–7————–|

Riff 3 x4 x3
d|—————-|—————-|—————–|
A|—————-|—————-|—————–|
F|—————-|—————-|—————–|
C|—————-|—————-|————5–7-|
G|-2————–|-4———-2—|-4———-3–5-|
D|-0–0-2-0-2-5-0-|-2–2-4-2-4—2-|-2–2-4-2-4——|

Play Riff 2
Play Riff 1 and use this for the 2nd ending:
d|—————–|
A|—————–|
F|-6-6-6-7-7-7-9-9-|
C|-4-4-4-5-5-5-7-7-|
G|-4-4-4-5-5-5-7-7-|
D|—————–|

Play Riff 2

Ending:
d|———————————-|
A|———————————-|
F|———————————-|
C|———————————-|
G|-12-12-12-12-12-10-9————–|
D|-10-10-10-10-10–8-7–0-0-0-000-0-|

To play the this songs, including Tyranny by Kreator by ukulele, the most crucial basic ukulele chords to learn are C chord, D chord, G chord, and Em chord.
These set you up to play a many of songs, and each of them is easy to learn.

If you are looking for Tyranny ukulele chords, you’ve visit to the best site.
You can play versatile instrument Tyranny using ukulele or guitar.
This song by Kreator can also be played by that instruments.
=

Tyranny chords has rhythm and included in Endorama (1999) album.
You can also get other musical genres, including jazz ukulele chords, country music ukulele chords, pop ukulele chords, world music ukulele chords, and rock ukulele chords here.

Tyranny by Kreator Ukulele Chords


Tuning: D tuning (all strings down a full step)

Riff 1
Guitar 1
d|——————————————————-|
A|——————————————————-|
F|—————9-9————————————-|
C|-9–9———-7-7——-1010——–9-9-9-1010–12-12-|
G|-7–7———-7-7——–8-8——–7-7-7–8-8–10-10-|
D|-7–7———————8-8——–7-7-7–8-8–10-10-|

Guitar 2
d|——————————————————-|
A|——————————————————-|
F|—————9-9————————————-|
C|-9–9———-7-7—-7—7-7–7-7-7-9-9-9-1010–12-12-|
G|-7–7—5-7-5——-7—7————7-7-7–8-8–10-10-|
D|————————————-7-7-7–8-8–10-10-|

Guitar 1
d|—————————————————|
A|—————————————————|
F|—————9-9——————-6-6-6-7-7—–|
C|-9–9———-7-7——-1010——–4-4-4-5-5-5-7-|
G|-7–7———-7-7——–8-8——–4-4-4-5-5-3-5-|
D|-7–7———————8-8———————-|

Guitar 2
d|—————————————————|
A|—————————————————|
F|—————9-9——————-6-6-6-7-7-7—|
C|-9–9———-7-7—-7–1010——–4-4-4-5-5–10-|
G|-7–7—5-7-5——-7—7-8-8——–4-4-4-5-5—–|
D|————————–8-8———————-|

Riff 2
Guitar 1
d|————————————|
A|————————————|
F|————————————|
C|-9–9-9-9-9-9—————9——-|
G|-7–7-7-7-7-7-1210-10101010-7-10-12-|
D|————–10-8–8-8-8-8—-8-10-|

d|————————————|
A|————————————|
F|————————————|
C|————————————|
G|-12-12-12-12-14-12-9–9-9-9-9-10-12-|
D|-10-10-10-10-12-10-7–7-7-7-7–8-10-|

Guitar 2 x3
d|—————–|—————–|
A|—————–|—————–|
F|———-7——|———-7——|
C|-9—-9——-10-|-9—-9—–10-9-|
G|—-7—7—7—-|—-7—7——–|
D|—————–|—————–|

Bass riff

Riff 2a [Verse 2nd part]
d|——-|
A|——-|
F|——-|
C|-4-5-7-|
G|-2-3-5-|
D|——-|

d|————————————|
A|————————————|
F|————————————|
C|-9–9-9-9-9-9—————9——-|
G|-7–7-7-7-7-7-1210-10101010-7-10-12-|
D|————–10-8–8-8-8-8—-8-10-|

d|————————————|
A|————————————|
F|————————————|
C|————————————|
G|-12-12-12-12-12-10-9–9-9-9-9-10-12-|
D|-10-10-10-10-10–8-7–7-7-7-7–8-10-|

d|————————————|
A|————————————|
F|————————————|
C|-9–9-9-9-9-9—————9——-|
G|-7–7-7-7-7-7-1210-10101010-7-10-12-|
D|————–10-8–8-8-8-8—-8-10-|

d|—————————————|
A|—————————————|
F|—————————————|
C|—————————————|
G|-12-12-12-12-12-10-9–9-9-9-9-10-12-10-|
D|-10-10-10-10-10–8-7–7-7-7-7–8-10–8-|

Play Riff 1 and use this for the 2nd ending:
d|—————–|
A|—————–|
F|-6-6-6-7-7-7-9-9-|
C|-4-4-4-5-5-5-7-7-|
G|-4-4-4-5-5-5-7-7-|
D|—————–|

Play Riff 2
Play Riff 2a
Play Riff 1 and use this for the 2nd ending:
d|—————–|
A|—————–|
F|-6-6-6-7-7-7-9-9-|
C|-4-4-4-5-5-5-7-7-|
G|-4-4-4-5-5-5-7-7-|
D|—————–|

And use this for the final chord:
d|—–|
A|—–|
F|—–|
C|–9–|
G|–7–|
D|–7–|

During interlude, this chord is played:
d|—————–|
A|—————–|
F|—————–|
C|–9————–|
G|–7———-3-5-|
D|–7————–|

Riff 3 x4 x3
d|—————-|—————-|—————–|
A|—————-|—————-|—————–|
F|—————-|—————-|—————–|
C|—————-|—————-|————5–7-|
G|-2————–|-4———-2—|-4———-3–5-|
D|-0–0-2-0-2-5-0-|-2–2-4-2-4—2-|-2–2-4-2-4——|

Play Riff 2
Play Riff 1 and use this for the 2nd ending:
d|—————–|
A|—————–|
F|-6-6-6-7-7-7-9-9-|
C|-4-4-4-5-5-5-7-7-|
G|-4-4-4-5-5-5-7-7-|
D|—————–|

Play Riff 2

Ending:
d|———————————-|
A|———————————-|
F|———————————-|
C|———————————-|
G|-12-12-12-12-12-10-9————–|
D|-10-10-10-10-10–8-7–0-0-0-000-0-|

To play the most songs, including Tyranny by Kreator by ukulele, the most important basic ukulele chords to learn are C chord, D chord, G chord, and Em chord.
These set you up to play a ton of songs, and each of them is easy to learn.