If you are looking for Loved ukulele chords, you’ve visit to the right site.
You can play versatile instrument Loved using ukulele or guitar.
This song by Kutless can also be played by that instruments.
=

Loved chords has rhythm and included in Surrender (2015) album.
You can also find another musical style, including jazz ukulele chords, country music ukulele chords, pop ukulele chords, world music ukulele chords, and rock ukulele chords here.

Loved by Kutless Ukulele Chords


INTRO: B | D | G

Verse 1

I’ve tasted shame, I know regret,
still get it wrong, even at my best,
some days I stand, an inch from the edge,
no way across, so lost.

Chorus 1

And loved, by the One who’s seen the corners of my soul,
I’m loved, by the One who reaches out and calls me home,
so loved, by the One who chose to give up His life,
I may never know how deep and how wide,
I’m loved,
I’m loved, oh.

Verse 2

In spite of fear, it never ends,
and hope can grow, no matter where I’ve been,
I’m finding joy, in the middle of my pain,
surprising truth, that cannot be contained.

Chorus 2

I’m loved, by the One who’s seen the corners of my soul,
I’m loved, by the One who reaches out and calls me home,
so loved, by the One who chose to give up His life,
I may never know how deep and how wide, I’m loved.

Bridge

(I’m), nothing, nothing, nothing can separate us,
from His love, from His love,
nothing, nothing, nothing can separate us,
from His love.

Chorus 3

I’m loved, by the One who’s seen the corners of my soul,
I’m loved, by the One who reaches out and calls me home,
so loved, by the One who chose to give up His life,
I may never know how deep and how wide
I’m loved, by the One who’s seen the corners of my soul,
Yes I’m loved, by the One who reaches out and calls me home,
so loved, by the One who chose to give up His life,
I may never know how deep and how wide,
I may never know how deep and how wide, I’m loved.

OUTRO: B | D | G

To play the this songs, including Loved by Kutless by ukulele, the most important basic ukulele chords to learn are C chord, D chord, G chord, and Em chord.
These set you up to play a a lot of songs, and each of them is easy to master.

If you are searching for Better For You ukulele chords, you’ve come to the best site.
You can play versatile instrument Better For You using ukulele or guitar.
This song by Kutless can also be played by that instruments.
=

Better For You chords has rhythm and included in Sea of Faces (2004) album.
You can also get another musical genres, including jazz ukulele chords, country music ukulele chords, pop ukulele chords, world music ukulele chords, and rock ukulele chords here.

Better For You by Kutless Ukulele Chords

Song: Better For You
Album: Sea of Faces
Band: Kutless

Intro
Gtr. 1


F#[-12------11--12----16--14-]
C#[--x-------x---x-----x---x-]
G#[-10-------9--10----14--12-]

Gtr. 2


F#[----5-------]
C#[-2--5--5--0-]
G#[-2--3--5--0-]2x
C#[-2-----5--0-]

Verse 1
(No Guitar)

Chorus
Gtr. 1


F#[-12------11--12----16--14-]
C#[--x-------x---x-----x---x-]2x
G#[-10-------9--10----14--12-]

Gtr. 2


F#[----5-------]
C#[-2--5--5--0-]
G#[-2--3--5--0-]4x
C#[-2-----5--0-]

Verse 2


F#[-9-9-7-9-9-7-9-9-7-9-9-7-9-9---9-9---9-9---12-12-11-]
C#[-----------------------------9-----9-----9----------]2x

Then


F#[-9-9-7-9-9-7-9-9-7-9-9-7-9-9---9-9---9-9-7-9-9-7-]
C#[-----------------------------9-----9-------------]

Chorus 2
Gtr. 1


F#[-12------11--12----16--14-]
C#[--x-------x---x-----x---x-]3x
G#[-10-------9--10----14--12-]

Gtr. 2


F#[----5-------]
C#[-2--5--5--0-]
G#[-2--3--5--0-]6x
C#[-2-----5--0-]

Bridge


C#[-2/2/2/2-7-9------7/7/7/7-10-9------10/10/10/10-7-5-----3/3/3/3-7-5-----]
G#[-2/2/2/2-----10-7-7/7/7/7------10-7-10/10/10/10-----7-5-3/3/3/3-----7-5-]2x
C#[-2/2/2/2----------7/7/7/7-----------10/10/10/10---------3/3/3/3---------]

. . . . . . .. . . . . . .. . .. . .. .. .. .. . . . . . . . . . . . .
Then


C#[-2----9----12----3-]
G#[-2----7----10----3-]2x
C#[-2----7----10----3-]

Chorus 2

Ending
C#[-2-]
G#[-2-]
C#[-2-]
i noticed octives in the intro and chorus, picking in the second verse and the
bridge

To play the most songs, including Better For You by Kutless by ukulele, the most crucial basic ukulele chords to learn are C chord, D chord, G chord, and Em chord.
These set you up to play a ton of songs, and each of them is easy to master.

If you are searching for You ukulele chords, you already visit to the right site.
You can play versatile instrument You using ukulele or guitar.
This song by Kutless can also be played by that instruments.
=

You chords has rhythm and included in To Know That You’re Alive (2008) album.
You can also get other musical style, including jazz ukulele chords, country music ukulele chords, pop ukulele chords, world music ukulele chords, and rock ukulele chords here.

You by Kutless Ukulele Chords


This version seems to play nicely along with the CD,
but I’m in question about some F’s and Dm’s, some are a bit equivocal.
Do lemme know if I’ve made a typo or misplaced a chord!

Enjoy!

Intro x1


|----|----|----|----


Clouds rolling on moving shadows
Over the countryside
A ray of light descends from the heavens
You’re presence fills the sky
I can’t deny what I’m seeing is true
When all I can think of and all I can dream of is

Chorus 1


--------

You
You’re the love I have always known, and It’s
You
I will never be alone

Chorus 2


--------

You’re all I desire You’re all that I choose
I guess that explains why I feel like I do
I cannot deny what I’m falling into
When all I can think of and all I can dream of is you

–>repeat intro

The earth declares your glory
There’s nowhere it can hide
And still you let me in
You draw me to your side

You are my hope and I know that it’s true
When all I can think of and all I can dream of is…

–> repeat chorus 1
–> repeat chorus 2

–>repeat intro

To play the most songs, including You by Kutless by ukulele, the most important basic ukulele chords to learn are C chord, D chord, G chord, and Em chord.
These set you up to play a a lot of songs, and each of them is easy to learn.

If you are looking for Pride Away ukulele chords, you’ve visit to the best site.
You can play versatile instrument Pride Away using ukulele or guitar.
This song by Kutless can also be played by that instruments.
=

Pride Away chords has rhythm and included in Kutless (2002) album.
You can also get another musical style, including jazz ukulele chords, country music ukulele chords, pop ukulele chords, world music ukulele chords, and rock ukulele chords here.

Pride Away by Kutless Ukulele Chords

Song: Pride Away
Band: Kutless
Album: Kutless

Intro
(No guitar)

Verse 1
(No guitar)

Pre-Chorus


G[-7--5---------------------]
D[-7--5--5--3-0-0-3-0-0-3-0-]
A[-5--3--5--3-0-0-3-0-0-3-0-]2x
D[-------5--3-0-0-3-0-0-3-0-]

. . . . .
Chorus


G[-----7-9-9-9-----7-9-9-9-----7-9-9-9---]
D[-7-7-x-x-x-x-3-3-x-x-x-x-5-5-x-x-x-x-5-]
A[-7-7-5-7-7-7-3-3-5-7-7-7-5-5-5-7-7-7-5-]
D[-7-7---------3-3---------5-5---------5-]

Then


G[-----7-9-9-9-----7-9-9-9-----7-7-7-7---]
D[-7-7-x-x-x-x-3-3-x-x-x-x-5-5-x-x-x-x-5-]
A[-7-7-5-7-7-7-3-3-5-7-7-7-5-5-5-5-5-5-5-]
D[-7-7---------3-3---------5-5---------5-]

Verse 2
Gtr. 1


G[------------------------------10-8------]
D[-------10-9--------------10-9------10-9-]
A[-7-7-7------10-7-8-7-7-7----------------]

Gtr. 2


D[-7----5----3----5-]
A[-7----5----3----5-]2x
D[-7----5----3----5-]

Pre-Chorus 2
Gtr. 1


G[-10-8--------------------------]
D[---------------3-0-0-3-0-0-3-0-]
A[------7-8-7-10-3-0-0-3-0-0-3-0-]2x
D[---------------3-0-0-3-0-0-3-0-]

Gtr. 2 . . . . .


G[-7--5---------------------]
D[-7--5--5--3-0-0-3-0-0-3-0-]
A[-5--3--5--3-0-0-3-0-0-3-0-]2x
D[-------5--3-0-0-3-0-0-3-0-]

. . . . .
Chorus

Bridge
Gtr. 1


G[------------------------------10-8------]
D[-------10-9--------------10-9------10-9-]
A[-7-7-7------10-7-8-7-7-7----------------]

Then


A[-7-7-3-3-7-8-7-5-5-5-3-3-7-8-7-5-3-3-3-3-5-5-5-5-7-7-5-5-3-3-5-5-]

. . . . . . . . . . . . . . . . . . . . . . . . . . . . . . . .
Then


G[-------------------------------------------------9-7-5-7-]
D[-------------------------------------------------x-x-x-x-]
A[-7-7-3-3-7-8-7-5-5-5-3-3-7-8-7-5-3-3-3-3-5-5-5-5-7-5-3-5-]

. . . . . . . . . . . . . . . . . . . . . . . .
Gtr. 2


D[-----7-----5-----3-----5-]
A[---7-----5-----3-----5---]4x
D[-7-----5-----3-----5-----]

Then


G[-----7-9-9-9-----7-9-9-9-----7-9-9-9---]
D[-7-7-x-x-x-x-3-3-x-x-x-x-5-5-x-x-x-x-5-]
A[-7-7-5-7-7-7-3-3-5-7-7-7-5-5-5-7-7-7-5-]2x
D[-7-7---------3-3---------5-5---------5-]

Then
Gtr. 1


G[-14-15-14-12-14-15-14-8-8-8-]
D[--x--x--x--x--x--x--x-x-x-x-]2x
A[-12-13-12-10-12-13-12-6-6-6-]

Gtr. 2


D[-0-3h5-0-3h5-0-5h6-0-3h5-3h5-0-3h5-0-3h5-0-5h6-0-3h5-1-1-1-]
A[-0-3h5-0-3h5-0-5h6-0-3h5-3h5-0-3h5-0-3h5-0-5h6-0-3h5-1-1-1-]2x
D[-0-3h5-0-3h5-0-5h6-0-3h5-3h5-0-3h5-0-3h5-0-5h6-0-3h5-1-1-1-]

. . . . . . . . . . . . . . . . . . . . . . . . . . . . .
Chorus

Ending
Gtr. 1


G[-14-15-14-12-14-15-14-8-8-8-]
D[--x--x--x--x--x--x--x-x-x-x-]4x
A[-12-13-12-10-12-13-12-6-6-6-]

Gtr. 2


D[-0-3h5-0-3h5-0-5h6-0-3h5-3h5-0-3h5-0-3h5-0-5h6-0-3h5-1-1-1-]
A[-0-3h5-0-3h5-0-5h6-0-3h5-3h5-0-3h5-0-3h5-0-5h6-0-3h5-1-1-1-]2x
D[-0-3h5-0-3h5-0-5h6-0-3h5-3h5-0-3h5-0-3h5-0-5h6-0-3h5-1-1-1-]

. . . . . . . . . . . . . . . . . . . . . . . . . . . . .
Then


D[-0-3h5-0-3h5-0-5h6-0-3h5-3h5-0-3h5-0-3h5-0-5h6-0-3h5-1-1-1-]
A[-0-3h5-0-3h5-0-5h6-0-3h5-3h5-0-3h5-0-3h5-0-5h6-0-3h5-1-1-1-]2x
D[-0-3h5-0-3h5-0-5h6-0-3h5-3h5-0-3h5-0-3h5-0-5h6-0-3h5-1-1-1-]

I changed the bridge a little

To play the this songs, including Pride Away by Kutless by ukulele, the most important basic ukulele chords to learn are C chord, D chord, G chord, and Em chord.
These set you up to play a many of songs, and each of them is easy to learn.

If you are looking for Passion ukulele chords, you’ve visit to the right site.
You can play versatile instrument Passion using ukulele or guitar.
This song by Kutless can also be played by that instruments.
=

Passion chords has rhythm and included in Sea of Faces (2004) album.
You can also get other musical genres, including jazz ukulele chords, country music ukulele chords, pop ukulele chords, world music ukulele chords, and rock ukulele chords here.

Passion by Kutless Ukulele Chords

Song: Passion
Album: Sea of Faces
Band: Kutless

Intro


A#[--------0--------------0--------------0-------------0------]
F#[------0--------------0--------------9-------------9--------]
C#[---10-----10------10-----10------10-----10-----10-----10---]
G#[-8-----------8-10-----------10-0-----------0-0-----------0-]

Verse 1


A#[--------0--------------0--------------0-------------0------]
F#[------0--------------0--------------9-------------9--------]
C#[---10-----10------10-----10------10-----10-----10-----10---]
G#[-8-----------8-10-----------10-0-----------0-0-----------0-]

Then
Gtr. 1


A#[--------0--------------0--------------0-------------0------]
F#[------0--------------0--------------9-------------9--------]
C#[---10-----10------10-----10------10-----10-----10-----10---]2x
G#[-8-----------8-10-----------10-0-----------0-0-----------0-]

Gtr. 2


D#[-5-8---------------------------5-8-------------------------------]
A#[-----5-8--------------------5------5-8---------------------------]
F#[---------4-5-5s7-5-4-5----7------------4-5-5s7-5-4-5-------------]
C#[-----------------------5-----------------------------5-5-3-3-5-3-]

Chorus


C#[-7----0----3----5-]
G#[-7----0----3----5-]2x
C#[-7----0----3----5-]

Post-Chorus
(Same as Intro)

Verse 2


A#[--------0--------------0--------------0-------------0------]
F#[------0--------------0--------------9-------------9--------]
C#[---10-----10------10-----10------10-----10-----10-----10---]
G#[-8-----------8-10-----------10-0-----------0-0-----------0-]

Then
Gtr. 1


A#[--------0--------------0--------------0-------------0------]
F#[------0--------------0--------------9-------------9--------]
C#[---10-----10------10-----10------10-----10-----10-----10---]2x
G#[-8-----------8-10-----------10-0-----------0-0-----------0-]

Gtr. 2


D#[-5-8---------------------------5-8-----------------------------------]
A#[-----5-8--------------------5------5-8---------------------------5---]
F#[---------4-5-5s7-5-4-5----7------------4-5-5-7-5-4-5---------------7-]
C#[-----------------------5-----------------------------5-5-3-3-5-3-----]

Chorus

Bridge


F#[-----------5------]
C#[-0----3----5----5-]
G#[-0----3----3----5-]2x
C#[-0----3---------5-]

Chorus 2


C#[-7----0----3----5-]
G#[-7----0----3----5-]2x
C#[-7----0----3----5-]

Then
Gtr. 1


C#[-7----0----3----5-]
G#[-7----0----3----5-]2x
C#[-7----0----3----5-]

Gtr. 2


D#[-5-8-------------------------------]
A#[-----5-8-------------------------5-]
F#[---------4-5-5s7-5-4-5-----4-5-7---]2x
C#[-----------------------5-7---------]

i added the second picking part to the verses and changed the first picking part

To play the this songs, including Passion by Kutless by ukulele, the most crucial basic ukulele chords to learn are C chord, D chord, G chord, and Em chord.
These set you up to play a ton of songs, and each of them is easy to learn.

If you are searching for Hearts of the Innocent ukulele chords, you have come to the best site.
You can play versatile instrument Hearts of the Innocent using ukulele or guitar.
This song by Kutless can also be played by that instruments.
=

Hearts of the Innocent chords has rhythm and included in Hearts of the Innocent (2006) album.
You can also find another musical style, including jazz ukulele chords, country music ukulele chords, pop ukulele chords, world music ukulele chords, and rock ukulele chords here.

Hearts of the Innocent by Kutless Ukulele Chords

Kutless-Hearts Of The Innocent
From:Hearts Of The Innocent
Copyright2006 BEC Records
Drop C# Tuning C#-G#-C#-F#-A#-D#

hhammer on
bbend
sdslide down

Intro


C#[------------------------------------------------------------10--x7/7-x7/7-]
G#[------------------------------------------------------------10--x7/7-x7/7-]
C#[0/2-0/2-0/2-0/2-5-5-0/2-0/2-0/2-0/2-7-7-0/2-0/2-0/2-0/2-5-5-10--x7/7-x7/7-]

Then


C#[0/2-0/2-0/2-0/2-5-5-0/2-0/2-0/2-0/2-7-7-0/2-0/2-0/2-0/2-5-5-10--x7/7-x7/7-]
G#[0/2-0/2-0/2-0/2-5-5-0/2-0/2-0/2-0/2-7-7-0/2-0/2-0/2-0/2-5-5-10--x7/7-x7/7-]
C#[0/2-0/2-0/2-0/2-5-5-0/2-0/2-0/2-0/2-7-7-0/2-0/2-0/2-0/2-5-5-10--x7/7-x7/7-]

Verse 1
Gtr. 1


D#[-0------0-----------------]
A#[---3------3----------0----]
F#[-----0------2------0------]
C#[---------------2h4--------]

Then
Gtr. 2


C#[-7-7/7-0-0/0-5-5--]
G#[-7-7/7-0-0/0-5-5--]
C#[-7-7/7-0-0/0-5-5--]

Then
Gtr. 1


D#[-0------0-----------------]
A#[---3------3----------0----]
F#[-----0------2------0------]
C#[---------------2h4--------]

Then
Gtr. 2


C#[-7-7/7-0-0/0-5-5--]
G#[-7-7/7-0-0/0-5-5--]
C#[-7-7/7-0-0/0-5-5--]

Pre-Chorus
Gtr. 2


C#[-10----7----10----2-4-5-7-4/0--]
G#[-10----7----10----2-5-5-7-5/0--]
C#[-10----7----10----2-4-5-7-4/0--]

Gtr. 1


D#[-------7/7---------------10/10---------------7/7----8/7--]
A#[-8/8----------8----8/8------------8----8/8---------------]
F#[----9/9---9/9---9-----9/9-----9/9---9-----9/9---9/9------]

Chorus
Gtr. 2


C#[-2----5----10----0/2-0/2-0/2-0/2-5-5--]
G#[-2----5----10----0/2-0/2-0/2-0/2-5-5--]x2
C#[-2----5----10----0/2-0/2-0/2-0/2-5-5--]

Then


C#[-2----5----10--x7/7-x7/7--]
G#[-2----5----10--x7/7-x7/7--]
C#[-2----5----10--x7/7-x7/7--]

Gtr. 1


D#[-------------------------------------------------------------7-------]
A#[---------------------------------------------------------8-------8---]x2
F#[-7h9-9/9/9/9/9/9/9/9/9/9/9/9-7h9-9/9/9/9/9/9/9/9/9/9/9/9---9---9---9-]
D#[-------------------------------------------------------------10------]
A#[---------------------------------------------------------8-------8---]
F#[-7h9-9/9/9/9/9/9/9/9/9/9/9/9-7h9-9/9/9/9/9/9/9/9/9/9/9/9---9---9---9-]

Verse 2
(Same as Verse 1)

Pre-Chorus

Chorus

Post-Chorus


C#[------------------------------------------------------------10--7--]
G#[------------------------------------------------------------10--7--]
C#[0/2-0/2-0/2-0/2-5-5-0/2-0/2-0/2-0/2-7-7-0/2-0/2-0/2-0/2-5-5-10--7--]

Bridge
Gtr. 2


C#[0/2-0/2-0/2-0/2-5-5-0/2-0/2-0/2-0/2-7-7-0/2-0/2-0/2-0/2-5-5-10----7----10-]
G#[0/2-0/2-0/2-0/2-5-5-0/2-0/2-0/2-0/2-7-7-0/2-0/2-0/2-0/2-5-5-10----7----10-]
C#[0/2-0/2-0/2-0/2-5-5-0/2-0/2-0/2-0/2-7-7-0/2-0/2-0/2-0/2-5-5-10----7----10-]
C#[-2-4-5-7-4/0--]
G#[-2-5-5-7-5/0--]
C#[-2-4-5-7-4/0--]

Gtr. 1


A#[-12b-10-8--8/10/8--8b-----12b-10-8--8/10/8---]
F#[--9b-------------9---9-----9b-------------9--]
A#[---10-12---10-12---10-12--13/12------10-12---10sd--]
F#[-9-------9-------9-------------12--9-------9-------]
F#[-9-11-12-14-11/7--]
C#[-x--x--x--x--x/x--]
G#[-7--9-10-12--9/5--]

Chorus

Ending
Gtr. 2


C#[-2-4-5-7-4/0--]
G#[-2-5-5-7-5/0--]x3
C#[-2-4-5-7-4/0--]

Gtr. 1


F#[-9-11-12-14-11/7--]
C#[-x--x--x--x--x/x--]x3
G#[-7--9-10-12--9/5--]

Tabbed by Adam K

Kutless
Album:Hearts of the Innocent
Released:Mar. 21/2006
BEC RECORDINGS
written by Kutless
Produced by Aaron Sprinkle
drop-d


e----------------------------------------------------
b----------------------------------------------------
g----------------------------------------------------
d-02020202-/55--02020202-/77-02020202-/55-8888--x5x5- (2x)
a-02020202-/55--02020202-/77-02020202-/55-8888--x5x5-
d-02020202-/55--02020202-/77-02020202-/55-8888--x5x5-

that was the intro(so i think). use distortion. this is a cool song. someone
please figure out the rest.please let me know of any corrections you have.
cool song, have a good day 🙂

To play the this songs, including Hearts of the Innocent by Kutless by ukulele, the most important basic ukulele chords to learn are C chord, D chord, G chord, and Em chord.
These set you up to play a a lot of songs, and each of them is easy to master.

If you are looking for Saved ukulele chords, you have visit to the right site.
You can play versatile instrument Saved using ukulele or guitar.
This song by Kutless can also be played by that instruments.
=

Saved chords has rhythm and included in Kutless (2002) album.
You can also find another musical style, including jazz ukulele chords, country music ukulele chords, pop ukulele chords, world music ukulele chords, and rock ukulele chords here.

Saved by Kutless Ukulele Chords


Song: Saved
Album: Kutless

Intro


E[--------10---------12-12-------]
B[----------------10-------10----]
G[---11--------11-------------11-]4x
D[-9----9----9-------------------]

Verse 1


E[--------10---------12-12-------]
B[----------------10-------10----]
G[---11--------11-------------11-]4x
D[-9----9----9-------------------]

Then


D[-----4-------0--------0-------0---]
A[---2---2---2---2----4---4---4---4-]6x
D[-0-------0--------0-------0-------]

Chorus


D[-2---5---0---7/7-5/5-7-]
A[-2---5---0---7/7-5/5-7-]2x
D[-2---5---0---7/7-5/5-7-]

Verse 2


D[-----4-------0--------0-------0---]
A[---2---2---2---2----4---4---4---4-]6x
D[-0-------0--------0-------0-------]

Chorus 2


D[-2---5---0---7/7-5/5-7-]
A[-2---5---0---7/7-5/5-7-]4x
D[-2---5---0---7/7-5/5-7-]

Post-Chorus


E[--------10---------12-12-------]
B[----------------10-------10----]
G[---11--------11-------------11-]2x
D[-9----9----9-------------------]

Verse 3


E[--------10---------12-12-------]
B[----------------10-------10----]
G[---11--------11-------------11-]8x
D[-9----9----9-------------------]

Chorus 2

Ending
Gtr. 1


D[-2---5---0---7/7-5/5-7-]
A[-2---5---0---7/7-5/5-7-]4x
D[-2---5---0---7/7-5/5-7-]

Gtr. 2


B[-55555555---------]
G[---------44444444-]8x

Ending
D[-2-2-2-]
A[-2-2-2-]
D[-2-2-2-]
i noticed there was more picking in the intro and verses

To play the this songs, including Saved by Kutless by ukulele, the most crucial basic ukulele chords to learn are C chord, D chord, G chord, and Em chord.
These set you up to play a ton of songs, and each of them is easy to master.

If you are searching for Remember Me ukulele chords, you already visit to the best site.
You can play versatile instrument Remember Me using ukulele or guitar.
This song by Kutless can also be played by that instruments.
=

Remember Me chords has rhythm and included in It Is Well (2009) album.
You can also get other musical genres, including jazz ukulele chords, country music ukulele chords, pop ukulele chords, world music ukulele chords, and rock ukulele chords here.

Remember Me by Kutless Ukulele Chords

key: Fm

Intro: Fm Ab Eb Bb4

Verse 1:

I looked in Your eyes, and saw it for a moment
The passion in Your cry, the chains of life are broken
Put to death by Your people, You came to bring us life
Only hope for the hopeless, will You remember me?


CHORUS -----------------------------------------

I’ve ben ashamed, I’ve been put down
Head in my hands, my life on the ground
Left heaven to save, liars and thieves
Sinners like me your blood sets us free
Who am I
That You would remember me?


-----------------------------------------------

Verse 2:

Spent all of my years, stealing from the world
With everything i had, I was still so poor
You have everything to lose, but You’re dying here with me
I believe, I believe, will You remember me?


CHORUS -----------------------------------------

I’ve been ashamed, I’ve been put down
Head in my hands, my life on the ground
Left heaven to save, Liars and thievel
Sinners like me, your blood sets us free
Who am I?


-----------------------------------------------

Bridge:

Take what I have left my Savior
Take me with You from this cross
When I leave this life completely
Remember me


CHORUS -----------------------------------------

I’ve been ashamed, I’ve been put down
Head in my hands, my life on the ground
Left heaven to save, liars and thieves
Sinners like me, your blood sets us free

I’ve been ashamed, I’ve been put down
Head in my hands, my life on the ground
Left heaven to save, liars and thieves
Sinners like me, your blood sets us free
Who am I
That You would remember me?


-----------------------------------------------
+- CHORDS USED -------------+

| |
| Fm – 1,3,3,1,1,1 |
| Ab – 4,6,6,5,4,4 |
| Eb – X,6,5,3,4,3 |
| Bb4 – X,1,3,3,4,1 |
| Db9 – X,4,6,6,4,4 |
| |
+___________________________+

To play the most songs, including Remember Me by Kutless by ukulele, the most crucial basic ukulele chords to learn are C chord, D chord, G chord, and Em chord.
These set you up to play a ton of songs, and each of them is easy to learn.

If you are looking for Smile (acoustic) ukulele chords, you already visit to the best place.
You can play versatile instrument Smile (acoustic) using ukulele or guitar.
This song by Kutless can also be played by that instruments.
=

Smile (acoustic) chords has rhythm and included in Hearts of the Innocent (2006) album.
You can also find another musical genres, including jazz ukulele chords, country music ukulele chords, pop ukulele chords, world music ukulele chords, and rock ukulele chords here.

Smile (acoustic) by Kutless Ukulele Chords


#
#Intro:
#
#


e|--4---------------------------------4---------------------------------|

#


b|--4---------------------------------4---------------------------------|

#


G|--4---------------------------------4------------------8--------------|

#


D|--6------6/8---9----8---6-----------6------6/8---9-(8)-----8--------6-|

#


A|---------------------------------------------------------------9------|

#


E|----------------------------------------------------------------------|

#
#Verse:
On a plane somewhere again
I take my place in line just like every other time
I slide into my window seat
She was sitting there
One seat over so I said “Hello, how are you today?”
With my smile I could see the hope within her eyes
And I knew that somethings different today

Chorus
Though everythings the same inside
Theres something real
A faith which causes me to change

(But whats different now)
A spark is gleaming in my eye
Like diamond stars that fill the sky
I think a smile says it all
A smile says it all

Interlude

Verse2:

The conversation presses on
As miles pass below, she said I have to let you know
You seem so different to me
There is a joy inside
The love of God is all I know
From which this could originate
With one smile I could see
The faith we share inside
And I know that somethings different today

I see what a smile can say[C#(m] about me
I know that words are not a[C#(m]lways what speak
Sometimes its not what I say
[C#(m] That the world around me seems to understand

This is my first tab so i’ not quite shure, but i think they play the chords in the high
so for example the E is an A on the 7th fret etc … just try it , but the standard
fit ,too.

To play the this songs, including Smile (acoustic) by Kutless by ukulele, the most crucial basic ukulele chords to learn are C chord, D chord, G chord, and Em chord.
These set you up to play a many of songs, and each of them is easy to master.

If you are searching for Treason ukulele chords, you’ve come to the right place.
You can play versatile instrument Treason using ukulele or guitar.
This song by Kutless can also be played by that instruments.
=

Treason chords has rhythm and included in Sea of Faces (2004) album.
You can also find another musical style, including jazz ukulele chords, country music ukulele chords, pop ukulele chords, world music ukulele chords, and rock ukulele chords here.

Treason by Kutless Ukulele Chords

record label:b.e.c. (division of tooth and nail)
album: sea of faces
written by jon micah sumrall

the other tabs of this song were either tuned wrong way off in the
chords or just out there so here is the right version:

drop d tuning d-a-d-g-b-e

i saw them in concert about a month
ago and that is about what they play.
i wont say its exactly what they play but its close

Intro 4x


E[---------------------]
B[---------------------]
G[---------------------]
D[-0-3-----6-0-3-----6-]
A[-0-3-5-5---0-3-5-5---]
D[-0-3-5-5---0-3-5-5---]

x x x x
Verse


E[---------] Play Intro
B[---------]
G[---------]
D[-8---6---]
A[-8---6---]
D[-8---6---]

Play 2x then on the next time
don’t play
intro just go directly to the chorus

Chorus 2x


E[----------------------------/----------]
B[----------------------------/----------]
G[----------------------------/----------]
D[-6--------8--------3--------/6---------]
A[-6--------8--------3--------/--3-5-5-5-]
D[-6--------8--------3--------/--3-5-5-5-]

Intro

Verse

Chorus

Bridge
4x 4x


E[-----------/-----------]
B[-----------/-----------]
G[-----------/-----------]
D[-3---------/-3-------6-]
A[-3---6p5---/-3---6p5---]
D[-3-------5-/-3---------]

chorus 2x

intro

that is the tab they are one of my favorite bands
they rock
questions / comments
email me at charliemot9@aol.com

To play the most songs, including Treason by Kutless by ukulele, the most crucial basic ukulele chords to learn are C chord, D chord, G chord, and Em chord.
These set you up to play a ton of songs, and each of them is easy to learn.

  • 1
  • 2