If you are looking for Come Back Down ukulele chords, you have come to the right site.
You can play versatile instrument Come Back Down using ukulele or guitar.
This song by Lifehouse can also be played by that instruments.
=

Come Back Down chords has rhythm and included in Other Songs album.
You can also find another musical genres, including jazz ukulele chords, country music ukulele chords, pop ukulele chords, world music ukulele chords, and rock ukulele chords here.

Come Back Down by Lifehouse Ukulele Chords


--------------------------------------

Lifehouse – Come Back Down
Standard Tuning
Capo 1st Fret


--------------------------------------

C Am F Dm x2

Staring right back in the face
A memory can’t be erased
I know, because I tried
Start to feel the emptiness
And everything can go amiss
I know, that I can’t hide

All this time is passing by
I think it’s time to just move on

When you come back down
If you land on your feet
I hope you find a way to make it back to me
When you come around
I’ll be there for you
Don’t have to be alone with what you’re going through


Start to breathe and fake a smile
It’s all the same after a while
I know, that you are tired
Carrying the ones you lost
A picture frame with all the thoughts
I know, you hold inside

I hope that you can find your way back
To the place where you belong

( Tab from: http://www.guitartabs.cc/tabs/l/lifehouse/come_back_down_crd.html )
When you come back down
If you land on your feet
I hope you find a way to make it back to me
When you come around
I’ll be there for you
Don’t have to be alone with what you’re going through

You’re coming back down
You say you feel lost can I help you find it
When you come around
From time to time we all are blinded
You’re coming back down
You don’t have to tell me what you’re feeling
I know what you’re going through
I won’t be the one that lets go of you


I think it’s time to just move on

When you come back down
If you land on your feet
I hope you find a way to make it back to me
When you come around
I’ll be there for you
Don’t have to be alone with what you’re going through

When you come back down
If you land on your feet
I hope you find a way to make it back to me
When you come around
I’ll be there for you
Don’t have to be alone with what you’re going through


--------------------------------------

If your feeling brave, an Em can be thrown in right
before the F in the first and fourth line of each chorus.


--------------------------------------

tabbed by T.R. (tarowe4@hotmail.com)

To play the most songs, including Come Back Down by Lifehouse by ukulele, the most important basic ukulele chords to learn are C chord, D chord, G chord, and Em chord.
These set you up to play a a lot of songs, and each of them is easy to learn.

If you are looking for Come Back Down ukulele chords, you’ve visit to the right place.
You can play versatile instrument Come Back Down using ukulele or guitar.
This song by Lifehouse can also be played by that instruments.
=

Come Back Down chords has rhythm and included in Other Songs album.
You can also find other musical style, including jazz ukulele chords, country music ukulele chords, pop ukulele chords, world music ukulele chords, and rock ukulele chords here.

Come Back Down by Lifehouse Ukulele Chords


--------------------------------------

Lifehouse – Come Back Down
Standard Tuning
Capo 1st Fret


--------------------------------------

C Am F Dm x2

Staring right back in the face
A memory can’t be erased
I know, because I tried
Start to feel the emptiness
And everything can go amiss
I know, that I can’t hide

All this time is passing by
I think it’s time to just move on

When you come back down
If you land on your feet
I hope you find a way to make it back to me
When you come around
I’ll be there for you
Don’t have to be alone with what you’re going through


Start to breathe and fake a smile
It’s all the same after a while
I know, that you are tired
Carrying the ones you lost
A picture frame with all the thoughts
I know, you hold inside

I hope that you can find your way back
To the place where you belong

( Tab from: http://www.guitartabs.cc/tabs/l/lifehouse/come_back_down_crd.html )
When you come back down
If you land on your feet
I hope you find a way to make it back to me
When you come around
I’ll be there for you
Don’t have to be alone with what you’re going through

You’re coming back down
You say you feel lost can I help you find it
When you come around
From time to time we all are blinded
You’re coming back down
You don’t have to tell me what you’re feeling
I know what you’re going through
I won’t be the one that lets go of you


I think it’s time to just move on

When you come back down
If you land on your feet
I hope you find a way to make it back to me
When you come around
I’ll be there for you
Don’t have to be alone with what you’re going through

When you come back down
If you land on your feet
I hope you find a way to make it back to me
When you come around
I’ll be there for you
Don’t have to be alone with what you’re going through


--------------------------------------

If your feeling brave, an Em can be thrown in right
before the F in the first and fourth line of each chorus.


--------------------------------------

tabbed by T.R. (tarowe4@hotmail.com)

To play the this songs, including Come Back Down by Lifehouse by ukulele, the most important basic ukulele chords to learn are C chord, D chord, G chord, and Em chord.
These set you up to play a a lot of songs, and each of them is easy to master.

If you are looking for Firing Squad ukulele chords, you already visit to the best site.
You can play versatile instrument Firing Squad using ukulele or guitar.
This song by Lifehouse can also be played by that instruments.
=

Firing Squad chords has rhythm and included in Out of the Wasteland (2015) album.
You can also get other musical genres, including jazz ukulele chords, country music ukulele chords, pop ukulele chords, world music ukulele chords, and rock ukulele chords here.

Firing Squad by Lifehouse Ukulele Chords


Verse (keep the same rythm as the intro) : F – Am – G

Early morning rain crashing upon
My rooftop and my brain,
Woke up in my clothes
Feeling like I’m insane,
The hours pass like days
Like days

Chorus : Am – F – C – G

And now you’re on the firing squad
I throw my hands up, I surrender
I don’t want to be a fraud
I don’t want to be the pretender
And I was like a lightening rod
I was always your defender
We were both right and wrong
I throw my hands up, I surrender

Intro : F – Am – G

I see your eyes, hear your voice
Outside my window
Calling for me in a time of trouble,
And you know I’d be there
Yes you know I’d be there

And now you’re on the firing squad
I throw my hands up, I surrender
I don’t want to be a fraud
I don’t want to be the pretender
And I was like a lightening rod
I was always your defender
We were both right and wrong
I throw my hands up, I surrender

Instru : F – Am – G (x2)

Bridge :
And I stand,
And I watch
As the streetcar’s rolling,
As the wind is blowing,
And there’s no way of knowing now

Am – F – C – G (play like a chorus)
Oh oh oh…

And now you’re on the firing squad
I throw my hands up, I surrender
I don’t want to be a fraud
I don’t want to be the pretender
And I was like a lightening rod
I was always your defender
We were both right and wrong
I throw my hands up, I surrender

To play the this songs, including Firing Squad by Lifehouse by ukulele, the most important basic ukulele chords to learn are C chord, D chord, G chord, and Em chord.
These set you up to play a a lot of songs, and each of them is easy to master.

If you are searching for Days Go By ukulele chords, you’ve visit to the best place.
You can play versatile instrument Days Go By using ukulele or guitar.
This song by Lifehouse can also be played by that instruments.
=

Days Go By chords has rhythm and included in Other Songs album.
You can also find other musical genres, including jazz ukulele chords, country music ukulele chords, pop ukulele chords, world music ukulele chords, and rock ukulele chords here.

Days Go By by Lifehouse Ukulele Chords


by r chi
any questions my email add is angelus121@gmail.com
Days Go By

guitar tunning is half step lower
[Dsus/F#]

Eb—3—1—0—3—3—|
Bb—3—3—2—3—3—|
Gb—0—3—2—2—2—|
Db—0—3—2—0—x—|
Ab—2—1—0—x—x—|
eb—3—x—x—x—2—|

Eb–0—3—3—0—2—|
Bb–1—3—3—1—1—|
Gb–0—0—0—2—2—|
Db–2—2—2—2—0—|
Ab–3—3—2—0—x—|
Eb–x—x—0—x—x—|

intro: G – Bb – A (2x)
verse 1
So don’t sit back and watch the days go by
Are you ever gonna live before you die
And when things fall apart
The world has come undone
Leave it all behind
Leave the loneliness alone
You wait forever blind

refrain
( Tab from: https://www.guitartabs.cc/tabs/l/lifehouse/days_go_by_crd.html )
So come on and leave[Dsus/F#] the years
When you watched the days go by
Come on and leave th[Dsus/F#]e fears
That you were afraid to find
Cause while you wait inside
G (do intro)
The days go by

(same asverse 1)
So all the memories fade
And the days go by
Forget the lonely yesterdays in mind
I know it’s never gonna be the way you like
I know you don’t wanna think about the endlessness you find
You wait forever blind

refrain2
So come on and leave[Dsus/F#] the years
When you watched the days go by
Come on and leave th[Dsus/F#]e fears
That you were afraid to find
You’re waiting for your time

Waiting for your time
All these days gone wrong
Who broke your fall
What a way to learn

So come on and leave[Dsus/F#] the years
When you watched the days go by
Come on and leave th[Dsus/F#]e fears
That you were afraid to find
Cause while you wait inside
G (intro chords as outro end with G)
The days go by

To play the most songs, including Days Go By by Lifehouse by ukulele, the most crucial basic ukulele chords to learn are C chord, D chord, G chord, and Em chord.
These set you up to play a a lot of songs, and each of them is easy to master.

If you are searching for Days Go By ukulele chords, you’ve come to the best place.
You can play versatile instrument Days Go By using ukulele or guitar.
This song by Lifehouse can also be played by that instruments.
=

Days Go By chords has rhythm and included in Other Songs album.
You can also find another musical genres, including jazz ukulele chords, country music ukulele chords, pop ukulele chords, world music ukulele chords, and rock ukulele chords here.

Days Go By by Lifehouse Ukulele Chords


by r chi
any questions my email add is angelus121@gmail.com
Days Go By

guitar tunning is half step lower
[Dsus/F#]

Eb—3—1—0—3—3—|
Bb—3—3—2—3—3—|
Gb—0—3—2—2—2—|
Db—0—3—2—0—x—|
Ab—2—1—0—x—x—|
eb—3—x—x—x—2—|

Eb–0—3—3—0—2—|
Bb–1—3—3—1—1—|
Gb–0—0—0—2—2—|
Db–2—2—2—2—0—|
Ab–3—3—2—0—x—|
Eb–x—x—0—x—x—|

intro: G – Bb – A (2x)
verse 1
So don’t sit back and watch the days go by
Are you ever gonna live before you die
And when things fall apart
The world has come undone
Leave it all behind
Leave the loneliness alone
You wait forever blind

refrain
( Tab from: https://www.guitartabs.cc/tabs/l/lifehouse/days_go_by_crd.html )
So come on and leave[Dsus/F#] the years
When you watched the days go by
Come on and leave th[Dsus/F#]e fears
That you were afraid to find
Cause while you wait inside
G (do intro)
The days go by

(same asverse 1)
So all the memories fade
And the days go by
Forget the lonely yesterdays in mind
I know it’s never gonna be the way you like
I know you don’t wanna think about the endlessness you find
You wait forever blind

refrain2
So come on and leave[Dsus/F#] the years
When you watched the days go by
Come on and leave th[Dsus/F#]e fears
That you were afraid to find
You’re waiting for your time

Waiting for your time
All these days gone wrong
Who broke your fall
What a way to learn

So come on and leave[Dsus/F#] the years
When you watched the days go by
Come on and leave th[Dsus/F#]e fears
That you were afraid to find
Cause while you wait inside
G (intro chords as outro end with G)
The days go by

To play the this songs, including Days Go By by Lifehouse by ukulele, the most crucial basic ukulele chords to learn are C chord, D chord, G chord, and Em chord.
These set you up to play a many of songs, and each of them is easy to master.

If you are looking for Spin ukulele chords, you already come to the best place.
You can play versatile instrument Spin using ukulele or guitar.
This song by Lifehouse can also be played by that instruments.
=

Spin chords has rhythm and included in Stanley Climbfall (2002) album.
You can also find another musical genres, including jazz ukulele chords, country music ukulele chords, pop ukulele chords, world music ukulele chords, and rock ukulele chords here.

Spin by Lifehouse Ukulele Chords

Song: Spin
Album: Stanley Climbfall
Tabbed by: Titus (dragonfaced@hotmail.com)
Tunning: normal tunning

Well this is it, the first song I’ve tabbbed! Hope you get it and enjoy it,
it’s a really nice song to play. I’m just typing the changes, for the right
timing listen to the song.

Intro: (Clean)


[-------------------------------------------------]
[-------------------------------------------------]
[-------------------------------------------------]
[----3---4---3---------------8--------------------]
[----4---4---4---4---6---4---6--------------------]
[----------------6---6---6------------------------]

Verse 1: (Clean)


[-------------------------------------------------]
[-------------------------------------------------]
[-------------------------------------------------]
[----3---4---3---------------8--------------------]
[----4---4---4---4---6---4---6--------------------]
[----------------6---6---6------------------------]
[-------------------------------------------------]
[-------------------------------------------------]
[-------------------------------------------------]
[----3---4---3---------------8---10---11----------]
[----4---4---4---4---6---4---6---8----9-----------]
[----------------6---6---6------------------------]

Chorus: (Dist)


[-------------------------------------------------]
[-------------------------------------------------]
[----6---3---8---10---11--------------------------]
[----6---3---8---10---11--------------------------]
[----4---1---6----8----9--------------------------]
[-------------------------------------------------] x2
[-------------------------------------------------]
[-------------------------------------------------]
[-----8----10------15-----13----11----10----------]
[-----8----10-------------------------------------]
[-----6-----8------13-----11-----9-----8----------]
[-------------------------------------------------]

Verse 2: (Clean) Same thing as the first one.


[-------------------------------------------------]
[-------------------------------------------------]
[-------------------------------------------------]
[----3---4---3---------------8--------------------]
[----4---4---4---4---6---4---6--------------------]
[----------------6---6---6------------------------]
[-------------------------------------------------]
[-------------------------------------------------]
[-------------------------------------------------]
[----3---4---3---------------8---10---11----------]
[----4---4---4---4---6---4---6---8----9-----------]
[----------------6---6---6------------------------]

Chorus 2: (Dist) Same thing as the first, Chorus 1.


[-------------------------------------------------]
[-------------------------------------------------]
[----6---3---8---10---11--------------------------]
[----6---3---8---10---11--------------------------]
[----4---1---6----8----9--------------------------]
[-------------------------------------------------] x2
[-------------------------------------------------]
[-------------------------------------------------]
[-----8----10------15-----13----11----10----------]
[-----8----10-------------------------------------]
[-----6-----8------13-----11-----9-----8----------]
[-------------------------------------------------]

Bridge: Guitar 1 plays this..


[---------------------13---16---------------------]
[-----14---------16------------16-----------------]
[--------13--14-----------------------------------]
[-------------------------------------------------]
[-------------------------------------------------]
[-------------------------------------------------] x2
[---------------------13---16---17----------------]
[-----14---------16-----------------19------------]
[--------13--14-----------------------------------]
[-------------------------------------------------]
[-------------------------------------------------]
[-------------------------------------------------] x2
[-------------------------------------------------]
[-------------------------------------------------]
[------8-----10----11-----------------------------]
[------8-----10----11-----------------------------]
[------6------8-----9-----------------------------]
[-------------------------------------------------] x2
[-------------------------------------------------]
[-------------------------------------------------]
[-6----3-----8-----10----11-----------------------]
[-6----3-----8-----10----11-----------------------]
[-4----1-----6------8-----9-----------------------]
[-------------------------------------------------]

Last Chorus: (Dist)


[-------------------------------------------------]
[-------------------------------------------------]
[----6---3---8---10---11--------------------------]
[----6---3---8---10---11--------------------------]
[----4---1---6----8----9--------------------------]
[-------------------------------------------------]
[-------------------------------------------------]
[-------------------------------------------------]
[----6---3---8---10-----15-----13----11----10-----]
[----6---3---8---10-------------------------------]
[----4---1---6----8-----13-----11-----9-----8-----]
[-------------------------------------------------]
[-------------------------------------------------]
[-------------------------------------------------]
[-----8----10------15-----13----11----10----------]
[-----8----10-------------------------------------]
[-----6-----8------13-----11-----9-----8----------]
[-------------------------------------------------]

Ending:


[---------------------13---16---------------------]
[-----14---------16------------16-----------------]
[--------13--14-----------------------------------]
[-------------------------------------------------]
[-------------------------------------------------]
[-------------------------------------------------] x2

Heh, hope it worked for you, it took me quite a while to tab it.

To play the this songs, including Spin by Lifehouse by ukulele, the most crucial basic ukulele chords to learn are C chord, D chord, G chord, and Em chord.
These set you up to play a ton of songs, and each of them is easy to master.

If you are looking for Crash and Burn ukulele chords, you already visit to the best site.
You can play versatile instrument Crash and Burn using ukulele or guitar.
This song by Lifehouse can also be played by that instruments.
=

Crash and Burn chords has rhythm and included in Other Songs album.
You can also get other musical style, including jazz ukulele chords, country music ukulele chords, pop ukulele chords, world music ukulele chords, and rock ukulele chords here.

Crash and Burn by Lifehouse Ukulele Chords


Song: Crash and Burn

Tuning: Half a step down (Eb,Ab,Db,Gb,Bb,Eb)

Intro


eb|------------------------------------------------------------------------------------------------------------------|
Bb|------------------------------------------------------------------------------------------------------------------|
Gb|-6-6-6-6-6/-13-13-13-13-13-6-6-6-6-6/-13-13-13-13-13-------------------------------------------------------------|
Db|-7-7-7-7-7/-14-14-14-14-14-7-7-7-7-7/-14-14-14-14-14-------------------------------------------------------------|
Ab|-0-0-0-0-0--0--0--0--0--0---0-0-0-0-0--0--0--0--0--0--9h11-11-11-11-9h11-11-11-11-9h11-11-11-11-11-9h11-11-11-11--|
Eb|------------------------------------------------------0-0--0--0--0--0-0--0--0--0--0-0--0--0--0--0--0-0--0--0--0---|

(Repeat once)

Play this over the verse


eb|------------------------------------------------------------------------------------------------------------------|
Bb|------------------------------------------------------------------------------------------------------------------|
Gb|-6-6-6-6-6/-13-13-13-13-13-6-6-6-6-6/-13-13-13-13-13-------------------------------------------------------------|
Db|-7-7-7-7-7/-14-14-14-14-14-7-7-7-7-7/-14-14-14-14-14-------------------------------------------------------------|
Ab|-0-0-0-0-0--0--0--0--0--0---0-0-0-0-0--0--0--0--0--0--9h11-11-11-11-9h11-11-11-11-9h11-11-11-11-11-9h11-11-11-11--|
Eb|------------------------------------------------------0-0--0--0--0--0-0--0--0--0--0-0--0--0--0--0--0-0--0--0--0---|

Verse 1
All these lies are catching up to me
I just can’t put it down and go to sleep
And I close my eyes and all that I can see
Is someone who I’m never gonna be

Pre-chorus 1
[A/C#]Could you remind me to forget
The t[B/D#]hings I did the things I said
I [A/C#]hope that you can bring me back
I [B/D#]have to make it right

Chorus 1
If I fall and crash and [Badd4/D#]burn
At least I [Bsus4/E]know your by my side
As I crawl that lessons [Badd4/D#]learned
It re[Bsus4/E]minds me I’ll survive


eb|------------------------------------------------------------------------------------------------------------------|
Bb|------------------------------------------------------------------------------------------------------------------|
Gb|-6-6-6-6-6/-13-13-13-13-13-6-6-6-6-6/-13-13-13-13-13-------------------------------------------------------------|
Db|-7-7-7-7-7/-14-14-14-14-14-7-7-7-7-7/-14-14-14-14-14-------------------------------------------------------------|
Ab|-0-0-0-0-0--0--0--0--0--0---0-0-0-0-0--0--0--0--0--0--9h11-11-11-11-9h11-11-11-11-9h11-11-11-11-11-9h11-11-11-11--|
Eb|------------------------------------------------------0-0--0--0--0--0-0--0--0--0--0-0--0--0--0--0--0-0--0--0--0---|

(Repeat this once and then play it over the second verse)

Verse 2
Silence just keeps screaming back at me
The ones I love I lost in memories
I wish that I could take back what was done
You can only change the person you’ve become

Pre-chorus 2
[A/C#]I’ve been broken I’ve been low
[B/D#]I’ve been hurt but I’ll move on
I [A/C#]have to try and find a way
To [B/D#]leave it all behind

Chourus 2
If I fall and crash and [Badd4/D#]burn
At least I [Bsus4/E]know your by my side
As I crawl that lessons [Badd4/D#]learned
It re[Bsus4/E]minds me I’ll survive
I’ve been hurt and I’ve been s[Badd4/D#]carred
At least I [Bsus4/E]know that I’m alive
And If I fall and crash and [Badd4/D#]burn
At least we [Bsus4/E]both know that I tried

Bridge

Bm,F#7sus4,A,Aadd2,A,E,Esus4,E,Esus4,E,Esus4,E,Esus4,E x2

Bm F#7sus4 A Aadd2 A E,Esus4,E,Esus4,E,Esus4,E,Esus4,E
All of the things that I tried to say
Bm F#7sus4 A Aadd2 A E,Esus4,E,Esus4,E,Esus4,E,Esus4,E
All of the words just got in the way
Bm F#7sus4 A Aadd2 A E,Esus4,E,Esus4,E,Esus4,E,Esus4,E
I’m waiting here I need your help
Bm F#7sus4 A Aadd2 A E,Esus4,E,Esus4,E,Esus4,E,Esus4,E
Don’t leave me down here all by myself

Pre-chorus 3
[A/C#]Could you remind me to forget
The t[B/D#]hings I did the things I said
I [A/C#]hope that you can bring me back
I [B/D#]have to make it right

Chorus 3
If I fall and crash and [Badd4/D#]burn
At least I [Bsus4/E]know your by my side
As I crawl that lessons [Badd4/D#]learned
It re[Bsus4/E]minds me I’ll survive
I’ve been hurt and I’ve been s[Badd4/D#]carred
At least I [Bsus4/E]know that I’m alive
And If I fall and crash and [Badd4/D#]burn
At least we [Bsus4/E]both know that I tried

Chords used
A/C# – x4222x
B/D# – x6444x
C#m7 – 9×9900
Badd4/D# – x69900
Bsus4/E – 079900
Asus2 – x02200
Bm – x24430
F#7sus4 – xx4420
A – x02220
Aadd2 – x02420
E – 022100
Esus4 – 022200

To play the this songs, including Crash and Burn by Lifehouse by ukulele, the most crucial basic ukulele chords to learn are C chord, D chord, G chord, and Em chord.
These set you up to play a ton of songs, and each of them is easy to learn.

If you are looking for Come Back Down ukulele chords, you already visit to the right place.
You can play versatile instrument Come Back Down using ukulele or guitar.
This song by Lifehouse can also be played by that instruments.
=

Come Back Down chords has rhythm and included in Other Songs album.
You can also get another musical genres, including jazz ukulele chords, country music ukulele chords, pop ukulele chords, world music ukulele chords, and rock ukulele chords here.

Come Back Down by Lifehouse Ukulele Chords


--------------------------------------

Lifehouse – Come Back Down
Standard Tuning
Capo 1st Fret


--------------------------------------

C Am F Dm x2

Staring right back in the face
A memory can’t be erased
I know, because I tried
Start to feel the emptiness
And everything can go amiss
I know, that I can’t hide

All this time is passing by
I think it’s time to just move on

When you come back down
If you land on your feet
I hope you find a way to make it back to me
When you come around
I’ll be there for you
Don’t have to be alone with what you’re going through


Start to breathe and fake a smile
It’s all the same after a while
I know, that you are tired
Carrying the ones you lost
A picture frame with all the thoughts
I know, you hold inside

I hope that you can find your way back
To the place where you belong

( Tab from: http://www.guitartabs.cc/tabs/l/lifehouse/come_back_down_crd.html )
When you come back down
If you land on your feet
I hope you find a way to make it back to me
When you come around
I’ll be there for you
Don’t have to be alone with what you’re going through

You’re coming back down
You say you feel lost can I help you find it
When you come around
From time to time we all are blinded
You’re coming back down
You don’t have to tell me what you’re feeling
I know what you’re going through
I won’t be the one that lets go of you


I think it’s time to just move on

When you come back down
If you land on your feet
I hope you find a way to make it back to me
When you come around
I’ll be there for you
Don’t have to be alone with what you’re going through

When you come back down
If you land on your feet
I hope you find a way to make it back to me
When you come around
I’ll be there for you
Don’t have to be alone with what you’re going through


--------------------------------------

If your feeling brave, an Em can be thrown in right
before the F in the first and fourth line of each chorus.


--------------------------------------

tabbed by T.R. (tarowe4@hotmail.com)

To play the most songs, including Come Back Down by Lifehouse by ukulele, the most important basic ukulele chords to learn are C chord, D chord, G chord, and Em chord.
These set you up to play a many of songs, and each of them is easy to learn.