If you are searching for I Love You ukulele chords, you have visit to the best site.
You can play versatile instrument I Love You using ukulele or guitar.
This song by Lou Reed can also be played by that instruments.
=

I Love You chords has rhythm and included in Lou Reed (1972) album.
You can also get other musical genres, including jazz ukulele chords, country music ukulele chords, pop ukulele chords, world music ukulele chords, and rock ukulele chords here.

I Love You by Lou Reed Ukulele Chords


#——————————————————————————##

I LOVE YOU- Lou Reed


When I think of all the things I’ve done
And I know that its only just begun
Those smiling faces you know I just can’t forget em
But I love you

When I think of all the things I’ve seen
A D E F# G (notes)
And I know that its only the beginning
You know those smiling faces I just can’t forget em
But for now I love you

Just for a little while
Oh baby just to see you smile
Just for a little while

A G G A (or A Bb C# Bb C# Bb A)

When I think of the things I’ve done
And I know that its only just begun
Oh oh smiling faces Jesus, you know I can’t forget em
But for now I love you
Right this minute baby now I love you
At least for now I love you

(from Lou Reed, 1971)

To play the most songs, including I Love You by Lou Reed by ukulele, the most crucial basic ukulele chords to learn are C chord, D chord, G chord, and Em chord.
These set you up to play a many of songs, and each of them is easy to learn.

If you are looking for Lady Day ukulele chords, you’ve visit to the right site.
You can play versatile instrument Lady Day using ukulele or guitar.
This song by Lou Reed can also be played by that instruments.
=

Lady Day chords has rhythm and included in Berlin (1973) album.
You can also find other musical genres, including jazz ukulele chords, country music ukulele chords, pop ukulele chords, world music ukulele chords, and rock ukulele chords here.

Lady Day by Lou Reed Ukulele Chords

(verse 1)
When she walked on down the street


----------6------------11--------------------9---
----6-----7------------11--------------------9---
----6--7--8------------11-------------------10---
----6--8--8--------------------------------------
----4--8--6--------------------------------------
-------6-----------------------------------------

She was like a child staring at her feet


----------6------------11--------------------------9---
----6-----7------------11--------------------------9---
----6--7--8------------11-------------------------10---
----6--8--8--------------------------------------------
----4--8--6--------------------------------------------
-------6-----------------------------------------------

But when she passed the bar and she


--9---6---4---2---1--------------------------------------------------
--9---7---6---2---2--------------------------------------------------
-10---8---6---3---1--------------------------------------------------
-11---8---6---4---3--------------------------------------------------
-----------------------------------4-4-4--4---4--4--4--4-4-4--4---4--
-----------------------------------2-2-2--2---2--2--2--2-2-2--2---2--

heard the music play she had to


---------------------------------------------------
---------------------------------------------------
---------------------------------------------------
---------------------------------------------------
--2--2--2--2--2--2--2--2--2--2--2--2--2--2--2--2---
--0--0--0--0--0--0--0--0--0--0--0--0--0--0--0--0---

go in and sing It had to be that way


-------------------------------------------------------------
-------------------------------------------------------------
-------------------------------------------------------------
--6-----6-----4-----------4----4----4------------------------
--6-----4-----2-----6-----4----2----1--6--4-----2------------
--------------------4------------------4--2-----0------------

She had to go in and sing it had to be that way


---------------------------------------------------------------------------
---------------------------------------------------------------------------
---------------------------------------------------------------------------
------------------------6----6----4-4------4-4-4----4----------------------
---------0--2--4--6--7--6----4----2-1-6----4-2-1----1-6-4------2-----------
-0--2--4------------------------------4---------------4-2------0-----------

(chorus)
And I said no, no, no oh, la—–dy Day


--------------------------4-------------4---------4---------0----------0------
--------------------------4-------------4---------4---------0----------0------
--------------------------4-------------4---------4---------1----1-----1------
--------------------------6-------6-----6----6----6---------2----2-----2------
---------0--2--4--6--7------------6----------6-------------------2------------
-0--2--4--------------------------4----------4-------------------0------------

And I said no, no, no oh, la—–dy Day


--------------------------4-------------4---------4---------0----------0------
--------------------------4-------------4---------4---------0----------0------
--------------------------4-------------4---------4---------1----1-----1------
--------------------------6-------6-----6----6----6---------2----2-----2------
---------0--2--4--6--7------------6----------6-------------------2------------
-0--2--4--------------------------4----------4-------------------0------------

(bridge)


--------------------------------------------------------
--------------------------------------------------------
------------------------------------------------5---7---
------------------------------------------------6---8---
---------0--2--3--5----3-----1-3----1-4-1-3-----6---8---
-0--2--4-------------3--------------------------4---6---


----------------------------------6--
----------------------------------7--
--------------------------6---7---8--
-5--------------6---5-----6---8---8--
-3-----1-3----1-4---3-----4---8---6--
------------------------------6------

(verse 2)
After the applause had died down


----------6------------11--------------------9---
----6-----7------------11--------------------9---
----6--7--8------------11-------------------10---
----6--8--8--------------------------------------
----4--8--6--------------------------------------
-------6-----------------------------------------

and the people drifted away


----------6------------11----------------9---
----6-----7------------11----------------9---
----6--7--8------------11---------------10---
----6--8--8----------------------------------
----4--8--6----------------------------------
-------6-------------------------------------

she climbed down off the bar and went


--9---6---4---2---1-----------------------------------------------------
--9---7---6---2---2-----------------------------------------------------
-10---8---6---3---1-----------------------------------------------------
-11---8---6---4---3-----------------------------------------------------
--------------------------------------4-4-4--4---4--4--4--4-4-4--4---4--
--------------------------------------2-2-2--2---2--2--2--2-2-2--2---2--

out the door to


---------------------------------------------------
---------------------------------------------------
---------------------------------------------------
---------------------------------------------------
--2--2--2--2--2--2--2--2--2--2--2--2--2--2--2--2---
--0--0--0--0--0--0--0--0--0--0--0--0--0--0--0--0---

the ho—tel that she called “home”.


-------------------------------------------------------------
-------------------------------------------------------------
-------------------------------------------------------------
--6-----6-----4-----------4----4----4------------------------
--6-----4-----2-----6-----4----2----1--6--4-----2------------
--------------------4------------------4--2-----0------------

it had greenish walls a bathroom in the hall


----------------------------------------------------------------------------
----------------------------------------------------------------------------
----------------------------------------------------------------------------
------------------------6----6----4-4------4-4-4----4-----------------------
---------0--2--4--6--7--6----4----2-1-6----4-2-1----1-6-4-------2-----------
-0--2--4------------------------------4---------------4-2-------0-----------

(chorus)

To play the this songs, including Lady Day by Lou Reed by ukulele, the most important basic ukulele chords to learn are C chord, D chord, G chord, and Em chord.
These set you up to play a many of songs, and each of them is easy to master.

If you are searching for Tell It to Your Heart ukulele chords, you already come to the best place.
You can play versatile instrument Tell It to Your Heart using ukulele or guitar.
This song by Lou Reed can also be played by that instruments.
=

Tell It to Your Heart chords has rhythm and included in Mistrial (1986) album.
You can also get another musical genres, including jazz ukulele chords, country music ukulele chords, pop ukulele chords, world music ukulele chords, and rock ukulele chords here.

Tell It to Your Heart by Lou Reed Ukulele Chords


e|-------3---3---3----------3---3---3--------3---3---3---------3---3---3---|
B|-------------------------------------------------------------------------|
G|-----0---0---0----0-----0---0---0--------0---0---0----0----0---0---0-----|
D|-------------------------------------------------------------------------|
A|-0-3------------------0--------------0-3-----------------0---------------|
E|-------------------------------------------------------------------------|


e|-------3---3---3----------3---3---3--------3---3---3---------3---3---3---|
B|-------------------------------------------------------------------------|
G|-----0---0---0----0-----0---0---0--------0---0---0----0----0---0---0-----|
D|-------------------------------------------------------------------------|
A|-0-3------------------0--------------0-3-----------------0---------------|
E|-------------------------------------------------------------------------|


e|-------3---3---3----------3---3---3--------3---3---3---------3---3---3---|
B|-------------------------------------------------------------------------|
G|-----0---0---0----0-----0---0---0--------0---0---0----0----0---0---0-----|
D|-------------------------------------------------------------------------|
A|-0-3------------------0--------------0-3-----------------0---------------|
E|-------------------------------------------------------------------------|


e|-------3---3---3-------3---3---3-----------------------------------------|
B|-----------------------------------------1------1----1---1---------------|
G|-----0---0---0-------0---0---0---------2------2----2---2-----------------|
D|-------------------------------------3------3----------------------------|
A|-0-3---------------0---------------3-------------------------------------|
E|-------------------------------------------------------------------------|

[C/E]


e|-----------------------------------0--3---3---3--------1--1---1----1-----|
B|---------1----------------1--------1--0---1-----1------3----3---3--------|
G|-------1---1------------1---1------0--0---0-------0----2-----------------|
D|-----3-------3--------3-------3-------0---2------------0-----------------|
A|---3-----------3----3--------------3--2----------------------------------|
E|-1----------------1-------------------3----------------------------------|


e|-1--1---1---1----3---3----3----3---3---3----3----3-----------------------|
B|-3----3---3------0-----0----0------0-----0----0--------------------------|
G|-2---------------0-----------------0-------------------------------------|
D|-0---------------0-----------------0-------------------------------------|
A|-----------------2-----------------2-------------------------------------|
E|-----------------3-----------------3-------------------------------------|

I’m staring through a telescope at night
at a large light in the sky
Its spinning lights reminded me of you
A star spinning in orbit lighting up th[C/E]e sky
Or maybe it was not a star at all

I’m standing by the Hudson River’s edge at night
looking out across the Jersey shore
At a neon light spelling out some cola’s name
And I thought your name should be dancing
beamed from s[C/E]atellites
Larger than any billboard in Times Square

Tell it to your heart, please don’t be [C/E]afraid
I’m the one who loves you in each and every way
Tell it to your heart, please don’t be af[C/E]raid
New York City lovers

Tell it to your heart, please don't be afraid
Tell it to your heart

I’m up on the roof, it’s 5 a.m.
I guess I couldn’t sleep
And I see this spinning light that I saw last week
Maybe I should wake you up but by then it might b[C/E]e gone
You never know what you see when you look up in the sky

I ran outside down a darkened street
listening to my boot heels click
My leather jacket squeaked, I needed a cigarette
When I turned the corner my spinning light was in the [C/E]street
They were filming a commercial on TV

Tell it to your heart, please don’t be [C/E]afraid
We’re no teenage movie that ends in tragedy
Tell it to your heart, please don’t be af[C/E]raid
New York City lovers

Tell it to your heart, please don’t be [C/E]afraid
I’m the one who loves you in each and every way
Tell it to your heart, please don’t be af[C/E]raid
New York City lovers

Tell it to your heart, please don't be afraid
Tell it to your heart

To play the most songs, including Tell It to Your Heart by Lou Reed by ukulele, the most crucial basic ukulele chords to learn are C chord, D chord, G chord, and Em chord.
These set you up to play a many of songs, and each of them is easy to learn.

If you are looking for Crazy Feeling ukulele chords, you already come to the right site.
You can play versatile instrument Crazy Feeling using ukulele or guitar.
This song by Lou Reed can also be played by that instruments.
=

Crazy Feeling chords has rhythm and included in Coney Island Baby (1975) album.
You can also get other musical genres, including jazz ukulele chords, country music ukulele chords, pop ukulele chords, world music ukulele chords, and rock ukulele chords here.

Crazy Feeling by Lou Reed Ukulele Chords


Intro: G | C G | G | C G | G | C G | D | D |

You’re the kind of person that I’ve been dreaming of
You’re the kind of person that I always wanted to love

And when I first seen you walk right through that bar door

And I seen those suit ‘n’ tie Johns buy you one drink
then buy you some more, I had that –

I knew you had that crazy feeling
now now now you’ve got that, that crazy feeling
You know that I’ve had that crazy feeling, too
I can see it in ya

You’ve got that crazy feeling
now now now now now you’ve got that, that crazy feeling
I’ve had that crazy feeling, too
Now everybody knows that business ends at three
And everybody knows an after hours love is free

And you, you really are a queen…. oh, such a queen, such a queen
And I know ’cause I’ve made the same scene
I know just what you mean because

You’ve got that crazy feeling
now now now you’ve got that, that crazy feeling now
You’ve got that crazy feeling deep inside
now oh I can see it in your eyes

You’ve got that crazy feeling
now now now you’ve got that, that crazy feeling
You’ve got that crazy feeling, too
I feel just like ya, feel just like ya
(Crazy feeling)
(Crazy feeling)

To play the this songs, including Crazy Feeling by Lou Reed by ukulele, the most important basic ukulele chords to learn are C chord, D chord, G chord, and Em chord.
These set you up to play a many of songs, and each of them is easy to master.

If you are looking for Set the Twilight Reeling ukulele chords, you have come to the right site.
You can play versatile instrument Set the Twilight Reeling using ukulele or guitar.
This song by Lou Reed can also be played by that instruments.
=

Set the Twilight Reeling chords has rhythm and included in Set the Twilight Reeling (1996) album.
You can also find other musical genres, including jazz ukulele chords, country music ukulele chords, pop ukulele chords, world music ukulele chords, and rock ukulele chords here.

Set the Twilight Reeling by Lou Reed Ukulele Chords

#——————————————————————————##

#

LOU REED

This appeared in lou Reed’s news….
It’s written by Ferdinando Pertusio

|A A A2 A| D E | (main riff)

Take me for what I am
A star newly emerging
Long simmering explodes
inside the self is reeling
In the pocket of the heart in the rushing of the blood

In the muscle of my sex in the mindful mindless love
I accept the new found man
And S T T R.

etc…

distorted electric guitar part:

|E |F# |G |A |

As the twilight sunburst gleams
As the chromium moon it sets
As I lose all my regrets
And S T T R
I accept the new found man
And S T T R.

NOTE: In the main riff in the clean part of the song, I think Lou
doesn’t
play the 1st string (that’s the high pitched E, to avoid any
confusion…)

To play the this songs, including Set the Twilight Reeling by Lou Reed by ukulele, the most important basic ukulele chords to learn are C chord, D chord, G chord, and Em chord.
These set you up to play a ton of songs, and each of them is easy to learn.

If you are searching for Tell It to Your Heart ukulele chords, you’ve come to the right site.
You can play versatile instrument Tell It to Your Heart using ukulele or guitar.
This song by Lou Reed can also be played by that instruments.
=

Tell It to Your Heart chords has rhythm and included in Mistrial (1986) album.
You can also find another musical genres, including jazz ukulele chords, country music ukulele chords, pop ukulele chords, world music ukulele chords, and rock ukulele chords here.

Tell It to Your Heart by Lou Reed Ukulele Chords



e|-------3---3---3----------3---3---3--------3---3---3---------3---3---3---|
B|-------------------------------------------------------------------------|
G|-----0---0---0----0-----0---0---0--------0---0---0----0----0---0---0-----|
D|-------------------------------------------------------------------------|
A|-0-3------------------0--------------0-3-----------------0---------------|
E|-------------------------------------------------------------------------|


e|-------3---3---3----------3---3---3--------3---3---3---------3---3---3---|
B|-------------------------------------------------------------------------|
G|-----0---0---0----0-----0---0---0--------0---0---0----0----0---0---0-----|
D|-------------------------------------------------------------------------|
A|-0-3------------------0--------------0-3-----------------0---------------|
E|-------------------------------------------------------------------------|


e|-------3---3---3----------3---3---3--------3---3---3---------3---3---3---|
B|-------------------------------------------------------------------------|
G|-----0---0---0----0-----0---0---0--------0---0---0----0----0---0---0-----|
D|-------------------------------------------------------------------------|
A|-0-3------------------0--------------0-3-----------------0---------------|
E|-------------------------------------------------------------------------|


e|-------3---3---3-------3---3---3-----------------------------------------|
B|-----------------------------------------1------1----1---1---------------|
G|-----0---0---0-------0---0---0---------2------2----2---2-----------------|
D|-------------------------------------3------3----------------------------|
A|-0-3---------------0---------------3-------------------------------------|
E|-------------------------------------------------------------------------|

[C/E]


e|-----------------------------------0--3---3---3--------1--1---1----1-----|
B|---------1----------------1--------1--0---1-----1------3----3---3--------|
G|-------1---1------------1---1------0--0---0-------0----2-----------------|
D|-----3-------3--------3-------3-------0---2------------0-----------------|
A|---3-----------3----3--------------3--2----------------------------------|
E|-1----------------1-------------------3----------------------------------|


e|-1--1---1---1----3---3----3----3---3---3----3----3-----------------------|
B|-3----3---3------0-----0----0------0-----0----0--------------------------|
G|-2---------------0-----------------0-------------------------------------|
D|-0---------------0-----------------0-------------------------------------|
A|-----------------2-----------------2-------------------------------------|
E|-----------------3-----------------3-------------------------------------|

I’m staring through a telescope at night
at a large light in the sky
Its spinning lights reminded me of you
A star spinning in orbit lighting up th[C/E]e sky
Or maybe it was not a star at all

I’m standing by the Hudson River’s edge at night
looking out across the Jersey shore
At a neon light spelling out some cola’s name
And I thought your name should be dancing
beamed from s[C/E]atellites
Larger than any billboard in Times Square

Tell it to your heart, please don’t be [C/E]afraid
I’m the one who loves you in each and every way
Tell it to your heart, please don’t be af[C/E]raid
New York City lovers

Tell it to your heart, please don't be afraid
Tell it to your heart

I’m up on the roof, it’s 5 a.m.
I guess I couldn’t sleep
And I see this spinning light that I saw last week
Maybe I should wake you up but by then it might b[C/E]e gone
You never know what you see when you look up in the sky

I ran outside down a darkened street
listening to my boot heels click
My leather jacket squeaked, I needed a cigarette
When I turned the corner my spinning light was in the [C/E]street
They were filming a commercial on TV

Tell it to your heart, please don’t be [C/E]afraid
We’re no teenage movie that ends in tragedy
Tell it to your heart, please don’t be af[C/E]raid
New York City lovers

Tell it to your heart, please don’t be [C/E]afraid
I’m the one who loves you in each and every way
Tell it to your heart, please don’t be af[C/E]raid
New York City lovers

Tell it to your heart, please don't be afraid
Tell it to your heart

To play the most songs, including Tell It to Your Heart by Lou Reed by ukulele, the most important basic ukulele chords to learn are C chord, D chord, G chord, and Em chord.
These set you up to play a a lot of songs, and each of them is easy to learn.

If you are looking for Ecstasy ukulele chords, you already come to the best place.
You can play versatile instrument Ecstasy using ukulele or guitar.
This song by Lou Reed can also be played by that instruments.
=

Ecstasy chords has rhythm and included in Ecstasy (2000) album.
You can also find other musical style, including jazz ukulele chords, country music ukulele chords, pop ukulele chords, world music ukulele chords, and rock ukulele chords here.

Ecstasy by Lou Reed Ukulele Chords


[Fmaj7b5]

e|——-0—0—0-0—0–0–0–0-0—————————|
B|-1–1——0—0-0—0–0–0–0-0—————————|
G|-2–2——1—1-1—2–2–2–2-2—————————|
D|-3–3——2—2-2—3–3–3–3-3—————————|
A|————————————————————|
E|————————————————————|

They call you ecstasy,nothing [Fmaj7b5]ever sticks to you
Not Velcro, not Scotch Tape
[Fmaj7b5]Not my arms dipped in glue
Not if I wrap myself in nylon
A piece of duct tape d[Fmaj7b5]own my back
Love pierced the arrow with a 12
And I can’t [Fmaj7b5]get you back

Ah, ecstasy, ecs[Fmaj7b5]tasy

Ecstasy, ah, ecs[Fmaj7b5]tasy

Across the streets an old Ford
They took off its[Fmaj7b5] wheels, the engine is gone
In it seat sits a box
With a note that says, “[Fmaj7b5]Goodbye Charlie, thanks a lot”
I see a child through a window with a bib
And I think of us and wha[Fmaj7b5]t we almost did
The Hudson rocketing with light
Ships pass the[Fmaj7b5] Statue of Liberty at night

Ah, ecstasy, ec[Fmaj7b5]stasy

Ecstasy, ah, ec[Fmaj7b5]stasy

Some men call me St. Ivory
Some call me [Fmaj7b5]St. Maurice
I’m smooth as alabaster
With white vein[Fmaj7b5]s running through my cheeks

Big stud through my eyebrow
A scar on my a[Fmaj7b5]rm that says, “Domain”
I put it over the tattoo
That con[Fmaj7b5]tained your name

Ah, ecstasy, ec[Fmaj7b5]stasy

Ecstasy, ah, ecst[Fmaj7b5]asy

The moon passing through a cloud
A body facing up[Fmaj7b5] is floating towards a crowd
And I think of a time and what I couldn't do
I couldn’t hol[Fmaj7b5]d you close, I couldn’t become you
They call you ecstasy
I can’t hold you down, I can’t hold[Fmaj7b5] you up
I feel like that car that I saw today
No radio, no [Fmaj7b5]engine, no hood

I’m going to the cafe, I hope they’ve got music there
And I h[Fmaj7b5]ope those guys can play
But if we have to part
I’ll have a new scar right over my heart
[Fmaj7b5]I’ll call it ecstasy

Ah, ecstasy, ec[Fmaj7b5]stasy

Ecstasy, ah, ecst[Fmaj7b5]asy

To play the this songs, including Ecstasy by Lou Reed by ukulele, the most crucial basic ukulele chords to learn are C chord, D chord, G chord, and Em chord.
These set you up to play a a lot of songs, and each of them is easy to master.

If you are looking for Call on Me ukulele chords, you’ve visit to the best place.
You can play versatile instrument Call on Me using ukulele or guitar.
This song by Lou Reed can also be played by that instruments.
=

Call on Me chords has rhythm and included in The Raven (2003) album.
You can also find another musical genres, including jazz ukulele chords, country music ukulele chords, pop ukulele chords, world music ukulele chords, and rock ukulele chords here.

Call on Me by Lou Reed Ukulele Chords


e|--------------------------------------------------------------------|
B|-1-0----------------------------------------------------------------|
G|-----0--------------------------------------------------------------|
D|-------0------------------------------------------------------------|
A|--------------------------------------------------------------------|
E|--------------------------------------------------------------------|


e|-------------------------------------------------------------------|
B|-1-0-----------------------1--0------------------------------------|
G|-----0--------------------------0----------------------------------|
D|-------0--------------------------2--------------------------------|
A|-------------------------------------------------------------------|
E|-------------------------------------------------------------------|

Caught in the crossbow of ideas and journeys
Sit here reliving the other self’s mournings
Caught in the crossbow of ideas and dawnings
Stand I


e|------------------------------------------------------------------|
B|-1-0-----------------------1--0-----------------------------------|
G|-----0--------------------------0---------------------------------|
D|-------0--------------------------2-------------------------------|
A|------------------------------------------------------------------|
E|------------------------------------------------------------------|

Reliving the past of the maddening impulse
Violent upheaval, the pure driven instinct
The pure driven murder, the attraction of daring
Stand I

Why didn’t you call on me?
Why didn’t you call on me?
Why didn’t you call on me?
Why didn’t you call?

[G/F#]

A wild being from birth, my spirit spurns control

Wondering the wide earth searching for my soul
Dimly peering, I would surely find
What could there be more purely bright

In truth’s day-star?

Why didn’t you call on me?
Why didn’t you call on me?
Why didn’t you call on me?

Why didn’t you call on me?
Why didn’t you call on me?
Why didn’t you call on me?

N.C.
Why didn’t you call?

To play the most songs, including Call on Me by Lou Reed by ukulele, the most important basic ukulele chords to learn are C chord, D chord, G chord, and Em chord.
These set you up to play a many of songs, and each of them is easy to master.