If you are searching for Sempre libera ukulele chords, you already visit to the best place.
You can play versatile instrument Sempre libera using ukulele or guitar.
This song by Malena Ernman can also be played by that instruments.
=

Sempre libera chords has rhythm and included in La Voix Du Nord (2009) album.
You can also get other musical genres, including jazz ukulele chords, country music ukulele chords, pop ukulele chords, world music ukulele chords, and rock ukulele chords here.

Sempre libera by Malena Ernman Ukulele Chords


ORDER: I V1 PC1 C V2 PC C B HC FC O



[B7/A]
[B7/A]
[E/G#] [F#/A#]
[E/B] [E/B]
[A/C#] [F#sus2/C#] [Dsus2/C#]

[VERSE 1]
Come per me [A/C#] sereno
[F#sus2/C#] Oggi ri[Dsus2/C#]nacque il di!
Come il ter[A/C#]ren fiorì,
[F#sus2/C#] Più bello e a[Dsus2/C#] – meno!

[PRE-CHORUS 1]
Amor è palpita
Del universo intero[B/D#]
Misterioso, delizia al cor!


Sempre libera[B/A]
Un bacio mio dolce amor
Sempre libera[B/A]
Mia vi – ta, o sogno dor
Come un sogno genti[E/G#] – le
E mia pace e d’amor[F#/A#]
La storia [E/B]mia
? sempre libera

[VERSE 2]
Donnina inna[A/C#] – morata
[F#sus2/C#] Possanza dell[Dsus2/C#] – amor
Tutto o[A/C#]se – r !
[F#sus2/C#] Incredibile, ma[Dsus2/C#] vero!

[PRE-CHORUS 2]
Ne viene a noi dal cielo
Infinito amor[B/D#]
C#m A E B/D# n.c.
Misterioso, delizia al cor


Sempre libera[B/A]
Un bacio mio dolce amor
Sempre libera[B/A]
Mia vi – ta, o sogno dor
Come un sogno genti[E/G#] – le
E mia pace e d’amor[F#/A#]
La storia [E/B]mia
? sempre libera


[B/D#]
[B/D#]
[Bm/D]

[HALF-CHORUS]
Sempre [E/B]libera
n.c.
Un bacio mio dolce amor

Sempre libera

Mia vi – ta, o sogno dor

[FINAL CHORUS]
Sempre libera[D/C]
Un bacio mio dolce amor
Sempre libera[D/C]
Mia vi – ta, o sogno dor
Come un sogno genti[G/B] – le
E mia pace e d’amor[A/C#]
La storia [G/D]mia
? sempre libera


[Am7b5/G]

To play the most songs, including Sempre libera by Malena Ernman by ukulele, the most crucial basic ukulele chords to learn are C chord, D chord, G chord, and Em chord.
These set you up to play a many of songs, and each of them is easy to master.

If you are looking for What Becomes of Love ukulele chords, you’ve come to the best place.
You can play versatile instrument What Becomes of Love using ukulele or guitar.
This song by Malena Ernman can also be played by that instruments.
=

What Becomes of Love chords has rhythm and included in La Voix Du Nord (2009) album.
You can also find another musical style, including jazz ukulele chords, country music ukulele chords, pop ukulele chords, world music ukulele chords, and rock ukulele chords here.

What Becomes of Love by Malena Ernman Ukulele Chords


ORDER: I V1 PC1 C1 INT1 V2 PC2 C2 INT2 FC1 FC2


Bm A/C# | D
A | G
D | Bm
Gmaj7 A |
Bm | G | C#m7b5/E | F#
Bm | G | C#m7b5/E | F#

[VERSE 1]
What becomes of love
when [C#m7b5/E]it has tried and failed
and you lose the one
who’s [C#m7b5/E]seen behind the veil?

[PRE?CHORUS 1]
Does the heart make a sound
if there’s no one around
to hear it [C#m7b5/E]cry when it cries
like [Bm/F#]I am crying now?

[CHORUS 1]
What becomes of love
when it goes away?
Where does it go?
Does it die or live to love another day?
Let the wind blow,
let the times change,
let me be strong enough
to hold on ’til I find out what
becomes of love

[INTERLUDE 1]
( Bm ) | G | C#m7b5/E | F#7

[VERSE 2]
I have worn the mask
of [C#m7b5/E]tra ? gedy too long,
and I’ve spilled the wine,
[C#m7b5/E]run ? ning to become

[PRE?CHORUS 2]
Who you wanted me to be,
who you loved what you need
But the [C#m7b5/E]mask couldn’t last,
and [Bm/F#]I’m asking now

[CHORUS 2]
What becomes of love
when it goes away?
Where does it go?
Does it die or live to love another day?
Let the wind blow,
let the times change,
let me be strong enough
to hold on ’til I find out what
becomes of love

[INTERLUDE 2]
( G ) | | F#m | |
where does it
Em | | A | |
go? I need to know

[FINAL CHORUS 1]
E |C#m |A |B |
E |C#m |G#m |A

Let the wind blow,
let the times change,
let me be strong enough
to hold on ’til I find out what
becomes of love

[FINAL CHORUS 2]
What becomes of love
when it goes away?
Where does it go?
Does it die or live to love another day?
Let the wind blow,
let the times change,
let me be strong enough
to hold on ’til I find out what
becomes of love

To play the this songs, including What Becomes of Love by Malena Ernman by ukulele, the most important basic ukulele chords to learn are C chord, D chord, G chord, and Em chord.
These set you up to play a ton of songs, and each of them is easy to master.

If you are searching for One Step From Paradise ukulele chords, you have come to the best place.
You can play versatile instrument One Step From Paradise using ukulele or guitar.
This song by Malena Ernman can also be played by that instruments.
=

One Step From Paradise chords has rhythm and included in La Voix Du Nord (2009) album.
You can also get other musical style, including jazz ukulele chords, country music ukulele chords, pop ukulele chords, world music ukulele chords, and rock ukulele chords here.

One Step From Paradise by Malena Ernman Ukulele Chords


ORDER: I V1 V2 C INT V3 C FC O


e|-^10-------10-8--6--5--------------5-6-|-^8--------8-------------------------5-|
B|-|7------------------------------------|-|8-----------11-10-8--------------8---|
G|-|8------------------------------------|-|8------------------------------------|
D|-|0------------------------------------|-|0------------------------------------|
A|---------------------------------------|---------------------------------------|
E|---------------------------------------|---------------------------------------|

[+] [+] [+] [+] [+][+][+][+]

[Cm/D]


e|-^6------6--------3-5-6--------6--5--3--|
B|-|8-------------------3-----------------|
G|-|8-------------------5-----------------|
D|-|0-------------------5-----------------|
A|----------------------3-----------------|
E|----------------------------------------|

[+] [+] [+] [+]

[Eb/D]

D |D

(the other part is an octave down)


e|----------------5--6--8--6--5------------|-5------------------|
B|----------7--8-----------------8-----7-8-|--------------------|
G|----7--8---------------------------------|--------------------|
D|-----------------------------------------|--------------------|
A|-----------------------------------------|--------------------|
E|-----------------------------------------|--------------------|

[+] [+] [+] [+]

[Cm7/D]


e|----------------5--6--8--6--5--------|------------------|
B|----------7--8-----------------8--7--|------------------|
G|----7--8-----------------------------|-7----------------|
D|-------------------------------------|------------------|
A|-------------------------------------|------------------|
E|-------------------------------------|------------------|

[+] [+] [+] [+]
[Eb/D]

[VERSE 1]
You moved in too close
And the [Cm/D]whole room has to know
How I’m [Eb/D]feeling
How I’m [Eb/D]breathing
Gives it all away

[VERSE 2]
Encounters of this kind
Come just [Cm/D]once in this life
When it [Eb/D]happens
Theres a [Eb/D]chance it
May not come again[D/C][Gm/Bb]


So [D7/A]I will open the doors
To all [F/A]the rooms of my heart
And I’ll let the meaning and the
[F/A]magic speak in our eyes
With a voice that is true
They [F/A]will whisper to you
There is a beautiful to[F/A]morrow
Waiting tonight
We move closer to heaven
A [Gm/Bb]lit – tle bit nearer to paradise
We move closer to heaven
A [Gm/Bb]lit – tle bit nearer to paradise

[INTERLUDE]


e|----------------5--6--8--6--5------------|-5------------------|
B|----------7--8-----------------8-----7-8-|--------------------|
G|----7--8---------------------------------|--------------------|
D|-----------------------------------------|--------------------|
A|-----------------------------------------|--------------------|
E|-----------------------------------------|--------------------|

[+] [+] [+] [+]

[Cm7/D]


e|----------------5--6--8--6--5--------|------------------|
B|----------7--8-----------------8--7--|------------------|
G|----7--8-----------------------------|-7----------------|
D|-------------------------------------|------------------|
A|-------------------------------------|------------------|
E|-------------------------------------|------------------|

[+] [+] [+] [+]
[Eb/D]

[VERSE 3]
Was there a promise that we made
From an [Cm/D]ancient yesterday
Cause I [Eb/D]know you
Like I’ve [Eb/D]known you
In another time[D/C][Gm/Bb]


So [D7/A]I will open the doors
To all [F/A]the rooms of my heart
And I’ll let the meaning and the
[F/A]magic speak in our eyes
With a voice that is true
They [F/A]will whisper to you
There is a beautiful to[F/A]morrow
Waiting tonight
We move closer to heaven
A [Gm/Bb]lit – tle bit nearer to paradise
We move closer to heaven
A [Gm/Bb]lit – tle bit nearer to para[D/C]dise[Gm/Bb]

[FINAL CHORUS]
D7/A n.c. Gm
So I will open the doors
To all [F/A]the rooms of my heart
And I’ll let the meaning and the
[F/A]magic speak in our eyes
With a voice that is true
They [F/A]will whisper to you
There is a beautiful to[F/A]morrow
Waiting tonight
We move closer to heaven
A [Gm/Bb]lit – tle bit nearer to paradise
We move closer to heaven
A [Gm/Bb]lit – tle bit nearer to paradise


e|----------------5--6--8--6--5------------|-5------------------|
B|----------7--8-----------------8-----7-8-|--------------------|
G|----7--8---------------------------------|--------------------|
D|-----------------------------------------|--------------------|
A|-----------------------------------------|--------------------|
E|-----------------------------------------|--------------------|

[+] [+] [+] [+]

Pa – ra-dise [Cm7/D] Paradise


e|----------------5--6--8--6--5--------|------------------|
B|----------7--8-----------------8--7--|------------------|
G|----7--8-----------------------------|-7----------------|
D|-------------------------------------|------------------|
A|-------------------------------------|------------------|
E|-------------------------------------|------------------|

[+] [+] [+] [+]
Pa – ra-dise [Eb/D] Paradise

To play the most songs, including One Step From Paradise by Malena Ernman by ukulele, the most important basic ukulele chords to learn are C chord, D chord, G chord, and Em chord.
These set you up to play a a lot of songs, and each of them is easy to learn.

If you are looking for Perdus ukulele chords, you have come to the right place.
You can play versatile instrument Perdus using ukulele or guitar.
This song by Malena Ernman can also be played by that instruments.
=

Perdus chords has rhythm and included in La Voix Du Nord (2009) album.
You can also find other musical genres, including jazz ukulele chords, country music ukulele chords, pop ukulele chords, world music ukulele chords, and rock ukulele chords here.

Perdus by Malena Ernman Ukulele Chords


ORDER: I-A1 A2 B1 A3 B2 A4 C

[INTRO – A1]
Cm Ab | Fm Bbsus4 Bb
Cm Ab | Fm Bbsus4 Bb
Eb/G Ab | Fm
D7 | G
Cm Ab | Fm Bbsus4 Bb
Cm Ab | Fm Bbsus4 Bb
Eb/G Ab | Fm
D7 | G


Regardez, ce que nos reves nous ont apporte
Nos petits jeux nous ont [Eb/G]fra – cas – ses
Et maintenant, perdus pour longtemps
Douloureux, ce qui devrait e – tre si glorieux
Est devenu tellement [Eb/G]dan – gereux
Et maintenant, perdus rapidement


Si [Cm/G]on veut la [Cm/Eb]le – con [G/D]ap – pren[Cm/Eb]dre
[Cm/G]Il faut qu’on [Cm/Eb]ait bien [G/D]com – pris
[Cm/G]Si on ne [Cm/Eb]reste pas [G/D]en – sem[Cm/Eb]ble
C’est tout fini


Termines, mais enfin qui est-ce qui peut nous sauver?
Est-ce que le monde nous a [Eb/G]re – craches?
Et maintenant, perdus certainement
Arrivee, l’addition que bientot il faut payer
Tout le monde sait qu’on ne peut [Eb/G]pas tarder
Et maintenant, perdus vraiment


[Cm/G]Pour – quoi est-ce [Cm/Eb]que je [G/D]pense qu’on[Cm/Eb]
[Cm/G]laisse les choses [Cm/Eb]de – ge[G/D]ne – rer?
[Cm/G]Pour – quoi est-ce [Cm/Eb]que je [G/D]sens que[Cm/Eb]
rien (ne) va changer?


Regardez, ce que nos reves nous ont ap – porte
Nos petits jeux nous ont [E/G#]fra – casses
Et maintenant, perdus pour longtemps[G#/B#]
Douloureux, ce qui devrait e – tre si glorieux
Est devenu tellement [E/G#]dan – gereux
Et maintenant, perdus rapidement


[C#m/G#]


To play the most songs, including Perdus by Malena Ernman by ukulele, the most crucial basic ukulele chords to learn are C chord, D chord, G chord, and Em chord.
These set you up to play a many of songs, and each of them is easy to learn.

If you are searching for Sempre libera ukulele chords, you already come to the best place.
You can play versatile instrument Sempre libera using ukulele or guitar.
This song by Malena Ernman can also be played by that instruments.
=

Sempre libera chords has rhythm and included in La Voix Du Nord (2009) album.
You can also find another musical genres, including jazz ukulele chords, country music ukulele chords, pop ukulele chords, world music ukulele chords, and rock ukulele chords here.

Sempre libera by Malena Ernman Ukulele Chords

ORDER: I V1 PC1 C V2 PC C B HC FC O



[B7/A]
[B7/A]
[E/G#] [F#/A#]
[E/B] [E/B]
[A/C#] [F#sus2/C#] [Dsus2/C#]

[VERSE 1]
Come per me [A/C#] sereno
[F#sus2/C#] Oggi ri[Dsus2/C#]nacque il di!
Come il ter[A/C#]ren fiorì,
[F#sus2/C#] Più bello e a[Dsus2/C#] – meno!

[PRE-CHORUS 1]
Amor è palpita
Del universo intero[B/D#]
Misterioso, delizia al cor!


Sempre libera[B/A]
Un bacio mio dolce amor
Sempre libera[B/A]
Mia vi – ta, o sogno dor
Come un sogno genti[E/G#] – le
E mia pace e d’amor[F#/A#]
La storia [E/B]mia
? sempre libera

[VERSE 2]
Donnina inna[A/C#] – morata
[F#sus2/C#] Possanza dell[Dsus2/C#] – amor
Tutto o[A/C#]se – r !
[F#sus2/C#] Incredibile, ma[Dsus2/C#] vero!

[PRE-CHORUS 2]
Ne viene a noi dal cielo
Infinito amor[B/D#]
C#m A E B/D# n.c.
Misterioso, delizia al cor


Sempre libera[B/A]
Un bacio mio dolce amor
Sempre libera[B/A]
Mia vi – ta, o sogno dor
Come un sogno genti[E/G#] – le
E mia pace e d’amor[F#/A#]
La storia [E/B]mia
? sempre libera


[B/D#]
[B/D#]
[Bm/D]

[HALF-CHORUS]
Sempre [E/B]libera
n.c.
Un bacio mio dolce amor

Sempre libera

Mia vi – ta, o sogno dor

[FINAL CHORUS]
Sempre libera[D/C]
Un bacio mio dolce amor
Sempre libera[D/C]
Mia vi – ta, o sogno dor
Come un sogno genti[G/B] – le
E mia pace e d’amor[A/C#]
La storia [G/D]mia
? sempre libera


[Am7b5/G]

To play the this songs, including Sempre libera by Malena Ernman by ukulele, the most crucial basic ukulele chords to learn are C chord, D chord, G chord, and Em chord.
These set you up to play a a lot of songs, and each of them is easy to master.