If you are searching for P.C.P. ukulele chords, you’ve come to the best site.
You can play versatile instrument P.C.P. using ukulele or guitar.
This song by Manic Street Preachers can also be played by that instruments.
=

P.C.P. chords has rhythm and included in The Holy Bible (1994) album.
You can also find another musical style, including jazz ukulele chords, country music ukulele chords, pop ukulele chords, world music ukulele chords, and rock ukulele chords here.

P.C.P. by Manic Street Preachers Ukulele Chords


Chords

e





Intro
[A5(sus2)] [C5(maj7)]

e-|———|———————|———|———————–|
B-|———|———————|———|——12———-12—|Repeat
G-|———|—–9—9—–9—9-|———|—-9—–9—–9—-9-| x2
D-|-0-0–0–|-10—-9—-10—9—|-0-0–0–|-10———-10——–|
A-|———|———————|———|———————–|

|D5 | |Bb#5b9 | |B5 | |G5 | |

Verse 1
The chords in verse 1 are played stacatto

Teacher starve your child, P.C. approved
As long as the right words are used
Systemised atrocity ignored
As long as bi-lingual signs on view
Ten foot sign in Oxford Street be pure
Be vigilant, behave
Grey not neon, grey not real
Life bleeds, death is your birthright

Pre-Chorus

P.C. she speaks impotent, sterile, naive, blind, atheist,
sadist, stiff-uppper lip
First principle of her silence

Chorus

P.C.P – a P.C. police victory
P.C.P – a P.C. phyrric victory
When I was young P.C. meant Police Constable
Nowadays I can’t seem to tell the difference

Verse 2

Fill 1

e-|———————|———-|
B-|—7—7—–7——-|———-|
G-|—–7————-7-|———-|
D-|———-9—–7—-|-9——-|
A-|———————|-9——-|
E-|———————|———-|

Liposuction for your bad mouth boy
Cut out your tongur effigies are sold
Words dicoloured, bow to the bland
Heal yourself with sinner’s salt
Doctors arrested for euthanasia
Bb#5b9 (fill 1)
Kill smokers through blind vanity
If you’re fat don’t get ill
Europe’s gravestone carved in plastic

Pre-Chorus: Repeat Pre-Chorus

Chorus: Repeat Chorus

Solo

|D | |Bb#5 | |Bb5 | |G5 | |

Pre-Chorus: Repeat Pre-Chorus

Chorus: Repeat Chorus

Outro: Repeat Verse x2

To play the this songs, including P.C.P. by Manic Street Preachers by ukulele, the most important basic ukulele chords to learn are C chord, D chord, G chord, and Em chord.
These set you up to play a many of songs, and each of them is easy to learn.

If you are looking for Enola/Alone ukulele chords, you already come to the best site.
You can play versatile instrument Enola/Alone using ukulele or guitar.
This song by Manic Street Preachers can also be played by that instruments.
=

Enola/Alone chords has rhythm and included in Everything Must Go (1996) album.
You can also get another musical genres, including jazz ukulele chords, country music ukulele chords, pop ukulele chords, world music ukulele chords, and rock ukulele chords here.

Enola/Alone by Manic Street Preachers Ukulele Chords


Chords:-

Dsus2 – xx0230
Dmaj7 – xx0222
Bm7 – x24232
Gm – x55333
D – xx0232
A – x0222x
F#7add9 – 244300
B5 – x244xx
D5 – xx023x
Dsus4 – xx0233
C5 – x355xx
E5 – 057700
Em7 – 020000
Asus4 – x02230
Dadd4/F# – 2000xx
G5 – 3x00xxx

Intro:-
|Dsus2 |Dmaj7 |Bm7 |Gm |
|D |Dmaj7 |Bm7 |Gm |Gm |

Verse:-

The statue of liberty looks so solemn on my T.V.

Hundred percent risk of stepping outside Every second too precious to try

My heart aches for enola from my birth a rellik a killer

D Dmaj7 Bm7 Gm(2 bars)
But all I want to do is live no matter how miserable it is. Ow!

Chorus:-

A(2 bars) F#7add9(2 bars)
Please sing to me a song

B5(2 bars) D5(2 bars)
Enola Alone

A(2 bars) F#7add9(2 bars)
Please take me on home

B5(2 bars) D (Dsus4 D Dsus2 D)-1 bar C5(2 bars strum 1 every bar)
Enola alone Ho________ Ho ho ho home

|D |Dmaj7|Bm7 |Gm |

Repeat verse and chorus

Instrumental:-


E I----------------------------I----------------------------I
B I----------------------------I----0-----------------------I
G I----2--1h2-1----------------I--------2--1----------0-----I
D I---------------2------------I--------------2-------------I
A I-------------------2--------I-2-----------------2--------I
E I-0--------------------------I----------------------------I


E I----------------------------I----------------------------I
B I----------------------------I----------------------------I
G I-2h4-4-4h7-7--7--7h9--------I-9-9--7--7--7-7--4--2--0----I
D I----------------------------I----------------------------I
A I----------------------------I----------------------------I
E I----------------------------I----------------------------I


E I----------------------------I----------------------------I
B I----------------------------I----------------------------I
G I----2--1h2-1----------------I-------------2---1--------0-I
D I---------------2------------I---------0-----------2--2---I
A I-------------------2--------I-2--0h2---------------------I
E I-0--------------------------I----------------------------I


E I----------------------------I----------------------------I
B I----------------------------I----------------------------I
G I-2--4--4-4--7--7--7--7---4--I-4---4---2--0--2b4r2---0----I
D I----------------------------I----------------------------I
A I----------------------------I----------------------------I
E I----------------------------I----------------------------I

|Asus4 |A |Asus4|A F#7add9(2 bars)
Please, Please sing to me a song

B5(2 bars) D(1bar) (Dsus4 D Dsus2 D)-1 bar
Enola alone

(2 bars) F#7add9(2 bars)
Please take me on home

B5(2 bars) D (Dsus4 D Dsus2 D)-1 bar C5(4 bars strum 1 every bar)
Enola alone Ho________ Ho ho ho ho ho ho ho

Ending(coda):-


E I-2--------------------------I-2--------------------------I
B I-3--------------------------I-3--------------------------I
G I-2--------------------------I-2--------------------------I
D I-0--------------------------I-0--------------------------I
A I----------------------------I----------------------------I
E I----------------------------I----------------------------I

[Dadd4/F#]


E I-0----0---------------------I--------3--3--3-----2-------I
B I-3----3---------------------I--------3--3--3-----3-------I
G I-2----2--------0---0--------I-0---0--2--2--2-----2-------I
D I-0----0--------0---0--------I-0---0--0--0--0-----0-------I
A I---------------0---0--------I----------------------------I
E I----------0----2---2----0---I-3---3----------------------I

[Dadd4/F#]


E I-0----0---------------------I--------3--3--3-----2-------I
B I-3----3---------------------I--------3--3--3-----3-------I
G I-2----2--------0---0--------I-0---0--2--2--2-----2-------I
D I-0----0--------0---0--------I-0---0--0--0--0-----0-------I
A I---------------0---0--------I----------------------------I
E I----------0----2---2----0---I-3---3----------------------I


E I-0--------------------------I
B I-3--------------------------I
G I-2--------------------------I
D I-0--------------------------I
A I----------------------------I
E I----------------------------I

Lyrics to the second verse:-

I walk in the grass and I feel some peace at last
I walk on the beach and for once I feel some ease
Ill take a picture of you to remeber how good you looked
Like memory it has dissapeared naked and lonly with my fearf Ow!

To play the this songs, including Enola/Alone by Manic Street Preachers by ukulele, the most important basic ukulele chords to learn are C chord, D chord, G chord, and Em chord.
These set you up to play a ton of songs, and each of them is easy to master.

If you are looking for The Intense Humming of Evil ukulele chords, you have come to the best site.
You can play versatile instrument The Intense Humming of Evil using ukulele or guitar.
This song by Manic Street Preachers can also be played by that instruments.
=

The Intense Humming of Evil chords has rhythm and included in The Holy Bible (1994) album.
You can also get other musical style, including jazz ukulele chords, country music ukulele chords, pop ukulele chords, world music ukulele chords, and rock ukulele chords here.

The Intense Humming of Evil by Manic Street Preachers Ukulele Chords

Member Name: the edge
Real Name: Alan Kells

oooh k so its about half 2 at night over here in the uk and i’m that bleedin tired that i can’t be bothered to put in all the ——-‘s soo……

The Intense Humming of Evil Guitar TAB

[-]
[-]
[-]
A [-]- 7 7 8 8
[-]

To play the most songs, including The Intense Humming of Evil by Manic Street Preachers by ukulele, the most crucial basic ukulele chords to learn are C chord, D chord, G chord, and Em chord.
These set you up to play a a lot of songs, and each of them is easy to learn.

If you are looking for The Love of Richard Nixon ukulele chords, you’ve visit to the best site.
You can play versatile instrument The Love of Richard Nixon using ukulele or guitar.
This song by Manic Street Preachers can also be played by that instruments.
=

The Love of Richard Nixon chords has rhythm and included in Lifeblood (2004) album.
You can also find another musical style, including jazz ukulele chords, country music ukulele chords, pop ukulele chords, world music ukulele chords, and rock ukulele chords here.

The Love of Richard Nixon by Manic Street Preachers Ukulele Chords


>Em C Am D (X 2)

The world on your shoulders
The love of your mother
The fear of the future
The best years behind you
The world is getting older
The times they fall behind you
The need it still grows stronger
The best years never found you

The love of Richard Nixon
Death without assassination
The love of Richard Nixon
Yeah they all betrayed you
The love of Richard Nixon
Death without assass

To play the most songs, including The Love of Richard Nixon by Manic Street Preachers by ukulele, the most important basic ukulele chords to learn are C chord, D chord, G chord, and Em chord.
These set you up to play a many of songs, and each of them is easy to learn.

If you are searching for The Future Has Been Here 4ever ukulele chords, you already visit to the best place.
You can play versatile instrument The Future Has Been Here 4ever using ukulele or guitar.
This song by Manic Street Preachers can also be played by that instruments.
=

The Future Has Been Here 4ever chords has rhythm and included in Other Songs album.
You can also find other musical genres, including jazz ukulele chords, country music ukulele chords, pop ukulele chords, world music ukulele chords, and rock ukulele chords here.

The Future Has Been Here 4ever by Manic Street Preachers Ukulele Chords


Tabbed by Dan Thomas
http://www.DanThomasMusic.com

D Bm F#m A x 2

Wipe those tears away
Keep as still as you can
Hold your breath and dig deep
And stop those trembling hands

Make yourself pretty
Just for one last time
No one will ever know
You ever left your prime


----------------------------------------------------|
----------------------------------------------------|
----------------------------------------------------|
--------0-----0h2-----------------------------------|
----0h2---0h2---------------------------------------|
--3-------------------------------------------------|

CHORUS


The future has been here fore….ver


----------------------------------------------------|
----------------------------------------------------|
----------------------------------------------------|
--------0-----0h2-----------------------------------|
----0h2---0h2---------------------------------------|
--3-------------------------------------------------|


The future’s still unclear whate….ver


----------------------------------------------------|
----------------------------------------------------|
----------------------------------------------------|
--------0-----0h2-----------------------------------|
----0h2---0h2---------------------------------------|
--3-------------------------------------------------|

Solo (verse chords)


----------------------------------------------------|
--------------------------14----14------------------|
-----------------7--------16b18-16-16-14-16---------|
---------------7---9-7----------------------16------|
---------7-7h9--------------------------------------|
-19s0-----------------------------------------------|

This place it left me
A long, long time ago
But it still keeps me here
It still keeps me close
When I start to break free
It calls me back again
Like the Godfather 3
I never can escape


----------------------------------------------------|
----------------------------------------------------|
----------------------------------------------------|
--------0-----0h2-----------------------------------|
----0h2---0h2---------------------------------------|
--3-------------------------------------------------|

CHORUS


My future has been here fore….ver


----------------------------------------------------|
----------------------------------------------------|
----------------------------------------------------|
--------0-----0h2-----------------------------------|
----0h2---0h2---------------------------------------|
--3-------------------------------------------------|


The future’s still unclear whate….ver


----------------------------------------------------|
----------------------------------------------------|
----------------------------------------------------|
--------0-----0h2-----------------------------------|
----0h2---0h2---------------------------------------|
--3-------------------------------------------------|

BREAK


When you can’t shake off your yesterdays
When you can’t rewrite your histories
When you let some love break through the light
When you let someone come into your life
To your life
To your life
To your life
To your life
To your life


----------------------------------------------------|
----------------------------------------------------|
----------------------------------------------------|
--------0-----0h2-----------------------------------|
----0h2---0h2---------------------------------------|
--3-------------------------------------------------|
-----------------------------10---------------------|
-------------------------10b12b10-8-----------------|
----------7-9-9b11-6~----------------11-11b12b11~~--|
--------7-------------------------------------------|
--7-7h9---------------------------------------------|
----------------------------------------------------|
-----10---------------------------------------------|
----------------------------------------------------|
--9b11b9-6b7b6b7b6----------------------------------|
----------------------------------------------------|
----------------------------------------------------|
----------------------------------------------------|
--------------------2-------------------------------|
--------------------3-------------------------------|
--------------------2-------------------------------|
--------0-----0h2---0-------------------------------|
----0h2---0h2---------------------------------------|
--3-------------------------------------------------|


To play the this songs, including The Future Has Been Here 4ever by Manic Street Preachers by ukulele, the most important basic ukulele chords to learn are C chord, D chord, G chord, and Em chord.
These set you up to play a many of songs, and each of them is easy to master.

If you are looking for Faster ukulele chords, you already come to the right place.
You can play versatile instrument Faster using ukulele or guitar.
This song by Manic Street Preachers can also be played by that instruments.
=

Faster chords has rhythm and included in The Holy Bible (1994) album.
You can also find another musical style, including jazz ukulele chords, country music ukulele chords, pop ukulele chords, world music ukulele chords, and rock ukulele chords here.

Faster by Manic Street Preachers Ukulele Chords


Riff A
P.M.
Amaj7(no 3rd)


G-|-----------|---------------|-----------|-----------------|
D-|-6---------|-6-------------|-6---------|-6---------------|
A-|---0--0--0-|---0-0--0-0--0-|---0--0--0-|---0--0----------|
E-|-----------|---------------|-----------|---------5-6-7-0-|

Riff B
This riff is played using triplets


G-|------------------------|---------------------------|
D-|-16-14-14--16-14-14--16-|-14-14--16-14-14--16-14-14-|
A-|-12-12-12--12-12-12--12-|-12-12--12-12-12--12-12-12-|
E-|------------------------|---------------------------|

Riff D


B-|------------|----------|-----------------|-----------------|-
G-|-12--11--9--|-7--6--4--|-4-4-4-4-4-4-4-4-|-4-4-4-4-4-4-4-4-|-
D-|-12--11--9--|-7--6--4--|-4-4-4-4-4-4-4-4-|-4-4-4-4-4-4-4-4-|-
A-|-10---9--7--|-5--4--2--|-2-2-2-2-2-2-2-2-|-2-2-2-2-2-2-2-2-|-
E-|------------|----------|-----------------|-----------------|-


B-|-----------------|-----------------|
G-|-----------------|-----------------|
D-|-2-2-2-2-2-2-2-2-|-2-2-2-2-2-2-2-2-|
A-|-2-2-2-2-2-2-2-2-|-2-2-2-2-2-2-2-2-|
E-|-0-0-0-0-0-0-0-0-|-0-0-0-0-0-0-0-0-|

Fill 1
Amaj7(no 3rd)


e-|-16----|-16----|-16----|-16-------------|
B-|-------|-------|-------|----------------|
G-|----14-|----14-|----14-|----14-16-16----|
D-|-------|-------|-------|-------------14-|

Fill 2


e-|-------------|--------|---------|----------|
B-|-5-ho-7~~~~~-|-(7)----|-9--7--5-|-9--7---5-|
G-|-------------|--------|---------|----------|

Fill 3


e-|-------------|---------|--------|--------|
B-|-5-ho-7~~~~~-|-(7)-----|-/9-----|-(9)----|
G-|-------------|---------|--------|--------|

Fill 4
This fill is played using triplets


e-|---------------------|---------------------|--------|
B-|-8-8-8--7-7-7--5-5-5-|-3-3-3--2-2-2--0-0-0-|-0------|
G-|---------------------|---------------------|--------|

Fill 5


e-|---------------|--------|--------12-12-12-12-----12-12-12-12-|
B-|------/3-3-2-3-|--------|--------12-12-12-12-----12-12-12-12-|
G-|---------------|--------|--------12--------------12----12-----|
D-|---------------|-2------|-------------------------------------|

Arrangement

Intro
The chords shown are played by guitar 2

(Spoken intro approx. 10 secs)

(fill 1)
|A5 |A5 |A5 |A5 |

Riff A x2

Verse 1
The chords shown are played by guitar 2
(riff A)
I am an architect, they call me a butcher
(riff A)
I am an pioneer, they call me primitive
(riff A)
I am purity, they call me perverted
(riff A)
Holding you but I only miss these things when they leave

Pre-Chorus
The chords shown are played by guitar 2
(fill 2)
I am an idiot drug hive, the virgin, the tattered and the torn
(fill 2)
Life is for the cold made warm and they are just lizards
(fill 2)
Self-digust is self-obsession honey and I do as I please
(fill 3)
A morality obedient only to be cleansed repented

Chorus
The chords shown and riff D are played by guitar 2
(riff C) (riff C)
I am stronger than Mensa
(riff D)
(w/fill 4)
Miller and Mailer I spat out Plath and Pinter
(riff C) (riff C)
I am all the things that you regret
(riff D)
(w/fill 4) (fill 5)
A truth that washes and that learnt how to spell

Interlude
Riff A is played by guitar 2

Riff A (w/fill 1)

Verse 2: Repeat Verse 1

Pre-Chorus: Repeat Pre-Chorus

Chorus: Repeat Chorus

Solo
The chords under the solo are played by guitar 2
|A5 |A5 |A5 |A5 |

Outro

(riff A)
So damn easy to cave in, man kills everything
(riff A)
So damn easy to cave in, man kills everything
(riff A)
So damn easy to cave in, man kills everything
(riff A)
So damn easy to cave in, man kills everything

[—-]
VERSE

The intro is something like :


e---------17--17--17--17------
b-----------------------------
g-----------13--13--13--------

The chorus is a continuous riff. Try this :
E e
A x0222x (play open but play all strings with index finger)

Followed by

? x06xxx

The timing isn’t difficult to work out, although the song begins with the string on the
6th fret (ensure that you play the A string open with this).
At the end of each lyric line, either bend the strings in the A chord as hard as you can (!)
or move the shape up to fret 3, then 4 in quick succession.

BRIDGE

E e
D x577xx (or open)
G#5 466xxx
F#5 244xxx
E x799xx (or open)
E5 022xxx

I am idiot drug hive, the virgin…..etc

…..tattered and the torn

I’ve been too honest with myself I should have lied like everybody else

The F#/G#/E part can be also played repetedly on single strings as
opposed to powerchords (I don’t know which it actually is) :
G# g string fret 1
F# d : 4
E d : 2

CHORUS

Is a version of A, played in the following phrase, with the strings held
permentantly on fret 9 and 10 and hammering on/off on 11 with 3rd and little
fingers. Listen to the record for the rythmn :


E---x----x----x
A---0----0----0
D---11---9----9
G---11---9----9
B---10---10---10
e---x----x----x

(repeat to rythmn)

(see above) G#5 F#5 E5 D5 C#5 B E
I am stronger than Mensa, Miller and Mail – er I spat out Plath and Pinter

G#5 x/11/13/13/x/x
F#5 x/9/11/11/x/x
E5 x799xx
D5 x577xx
C#5 x466xx
B x244xx

The run of 5 chords might be played on just the one string – it isn’t clear – but the B on
“AND…” is definitely right as is the E (the above is how I play it, moving quickly along the
chords whilst strumming and it sounds cool, so…. 🙂

ending with

Em11 x/x/x12/12/12 in 3 rapid bursts after the chorus

To play the this songs, including Faster by Manic Street Preachers by ukulele, the most important basic ukulele chords to learn are C chord, D chord, G chord, and Em chord.
These set you up to play a ton of songs, and each of them is easy to learn.

If you are looking for No Surface All Feeling ukulele chords, you already visit to the best site.
You can play versatile instrument No Surface All Feeling using ukulele or guitar.
This song by Manic Street Preachers can also be played by that instruments.
=

No Surface All Feeling chords has rhythm and included in Everything Must Go (1996) album.
You can also get another musical genres, including jazz ukulele chords, country music ukulele chords, pop ukulele chords, world music ukulele chords, and rock ukulele chords here.

No Surface All Feeling by Manic Street Preachers Ukulele Chords


#
#NO SURFACE ALL FEELING
#
#Verse: E, Abm, (Gm), F#m, Asus2
#Chorus/intro: E, F#m, A
#
#


E -------------16------------------14------------------12--------

#


B ----------12----12------------12----12------------12----12-----

#


G --(12)/13----------13-(12)/13----------13-(12)/13----------13--

#


D ---------------------------------------------------------------

#


A ---------------------------------------------------------------

#


E ---------------------------------------------------------------

#
#


E -------------11----------------9-------12--9-------------------

#


B ----------12----12----------10---10-----------10---------------

#


G --(12)/13----------13--9/11---------11-----------11--11--11/14-

#


D ---------------------------------------------------------------

#


A ---------------------------------------------------------------

#


E ---------------------------------------------------------------

#
#


E -----12-------15--12-------

#


B --13----13-----------13----

#


G -----------14-----------14-

#


D ---------------------------

#


A ---------------------------

#


E ---------------------------

#
#E 022100
G#maddb6 x66400
F#m11 x44200
Asus2 x02200
E5 02xxxx
(Intro)
Embarrased possessed and so uncivilised[G#maddb6]
Just take a look at the whites of my eyes
See me now and I will apologise[G#maddb6]
For me for you we knew there were lies
It makes me angry, ashamed, but really alive
It may have worked but at what price
What’s the point of always looking back
When all you see is more and more junk
It was no surface but all feeling
Maybe at the time it felt like dreaming
Maybe richer maybe wiser[G#maddb6]
seems so easy to not go too far
beg me to stop hate my face I k[G#maddb6]now
tell me forever just to go
Just one thing before I get to sleep
nothing here but the stains on my teeth
no not blood just liquid from you
I only wish it was the truth
Feel the guilt of a sinner
feel the cold of a winter
It was no surface but all feeling
maybe at the time it felt like dreaming

To play the this songs, including No Surface All Feeling by Manic Street Preachers by ukulele, the most important basic ukulele chords to learn are C chord, D chord, G chord, and Em chord.
These set you up to play a a lot of songs, and each of them is easy to learn.

If you are searching for Intravenous Agnostic ukulele chords, you have visit to the right site.
You can play versatile instrument Intravenous Agnostic using ukulele or guitar.
This song by Manic Street Preachers can also be played by that instruments.
=

Intravenous Agnostic chords has rhythm and included in Know Your Enemy (2001) album.
You can also find another musical genres, including jazz ukulele chords, country music ukulele chords, pop ukulele chords, world music ukulele chords, and rock ukulele chords here.

Intravenous Agnostic by Manic Street Preachers Ukulele Chords


Band: Manic Street Preachers
Album: Know Your Enemy
Song: Intravenous Agnostic
Year: 2001
Versions: 2

INTRAVENOUS AGNOSTIC
Transcribed by Fung Mak fung.mak@strath.ac.uk
Chords used:
G: 355433
Csus4: 8,10,10,10,88
Bb: 688766
G#5:
F#5:
E5:
B5:
D5:


[VERSE 1]
Into a day exhibit the derelict
Secular mosiac distracted at birth
A Cubist abstraction let it live forever
Narcism so lovely so live by the sea
G#5 G#5 F#5 E5 E5 x3

Cosmetic – polemic
Distinguished – by relics
Destructive aesthetic
Intravenous agnostic
Intravenous agnostic
Intravenous agnostic
Intravenous agnostic
Intravenous

Brutality is needed in capitalist society
Television abandoned my very entity
Nature fucked me but then it made me
We all pray for pluralist babies


e||-2-2-2-2----------------------------------|
B||---------3-3-3-3--3-4-4-4-4---------------|
G||----------------------------5--4--2-4b5r4-|
D||------------------------------------------|
A||------------------------------------------|
E||------------------------------------------|
e||-2-2-2-2----------------------------------|
B||---------3-3-3-3--3-4-4-4-4---------------|
G||----------------------------5--4--2-4-4-4-|
D||------------------------------------------|
A||------------------------------------------|
E||------------------------------------------|
e||-2-2-2-2--------------------------------------|
B||---------3-3-3-3b4r3--3-4-4-4-4---------------|
G||--------------------------------5--4--2-4b5r4-|
D||----------------------------------------------|
A||----------------------------------------------|
E||----------------------------------------------|
e||-2-2-2-2----------------------------------|
B||---------3-3-3-3--3-4-4-4-4---------------|
G||----------------------------5--4--2-4b5r4-|
D||------------------------------------------|
A||------------------------------------------|
E||------------------------------------------|

(tremolo picking)


e||---------------------------------------------/10-10-10--|
B||-6/7-7-7-7/8-8-8-8-8b10-10-10-10/12-12-12-12------------|
G||--------------------------------------------------------|
D||--------------------------------------------------------|
A||--------------------------------------------------------|
E||--------------------------------------------------------|
e||-8--7-7-7-7--/10-10-10--8--7-7-7-7--/(18)//-(plucking string randomly at same time)-|
B||-------------------------------------------------------------------------------------|
G||-------------------------------------------------------------------------------------|
D||-------------------------------------------------------------------------------------|
A||-------------------------------------------------------------------------------------|
E||-------------------------------------------------------------------------------------|


Dismayed – dispossed
Life becomes calvanist
So sparkle and believe
Linguistics die easily

Author/Artist: Manic Street Preachers
Title: Intravenous Agnostic
Album: Know Your Enemy
Transcribed by: jdbsguitar

Chords used:-
G (x.10.12.12.x.x)
F (x.8.10.10.x.x)
Eb (x.6.8.8.x.x)
Bb (6.8.8.x.x.x)
G#5 (4.6.6.x.x.x)
F5 (1.3.3.x.x.x)
F (x.6.x.8.x.x)
B5 (7.9.9.x.x.x) or (x.1.3.3.x.x)
D5 (x.5.7.7.x.x)
G5 (3.5.5.x.x.x)
Intro G, F, Eb
Verse G, F, Eb, Bb
Bridge G#5, F5 x4

Chorus B5, D5, G5, D5 and add this slide riff when appropriate –

“intravenous agnostic…..Intravenous agnostic”


------------------------------------------------------------------------------
------------------------------------------------------------------------------
------------------------------------------------------------------------------
------------------------------------------------------------------------------
------------------------------------------------------------------------------
-5s10-5s10-5s10---------------------------------------------------------------

and end with F strumming fast, then back to verse chords

Middle 8 –


------------------------------------------------------------------------------
------------------------------------------------------------------------------
--11-----7---8-5--4bu6--------------------------------------------------------
------------------------------------------------------------------------------
------------------------------------------------------------------------------
------------------------------------------------------------------------------

listen to record for timing and how many times to pick each note, also bend up a step on 7 above for some variation

Solo –


------------------------------------------------------------------------------
-15b-17rb15-13-12-------------------------------------------------------------
------------------11-12-14-16-------------------------------------------------
------------------------------------------------------------------------------
------------------------------------------------------------------------------
------------------------------------------------------------------------------

repeat bit on b string twice and add as much vibrato and plucking on each and every note as
posible! For the squealing bit just mess around on the g, b, e strings getting right up by the
pick ups at the end.

End on D5 chord and let ring. Enjoy!

To play the this songs, including Intravenous Agnostic by Manic Street Preachers by ukulele, the most crucial basic ukulele chords to learn are C chord, D chord, G chord, and Em chord.
These set you up to play a ton of songs, and each of them is easy to learn.

If you are looking for The Convalescent ukulele chords, you already visit to the best site.
You can play versatile instrument The Convalescent using ukulele or guitar.
This song by Manic Street Preachers can also be played by that instruments.
=

The Convalescent chords has rhythm and included in Know Your Enemy (2001) album.
You can also find another musical style, including jazz ukulele chords, country music ukulele chords, pop ukulele chords, world music ukulele chords, and rock ukulele chords here.

The Convalescent by Manic Street Preachers Ukulele Chords


Band: Manic Street Preachers
Album: Know Your Enemy
Song: The Convalescent
Year: 2001
Versions: 2

The Convalescent
(Wire/Bradfield/Moore)

Transcribed by Daniel Bamsey (drbams@yahoo.com)

standard tuning (eadgbe)

Chords:


-7----7------2---5-0---5-0-----------
-8----7---7--3---5-1---5-0-----------
-9----9---7--2---5-2---5-2-----------
-9----9---7--0---7-2---9-2-----------
-7----7---5------7-0---7-0-----------
-----------------5-----5-------------


----------0---2---1-------4---0---0---
-10--9----1---1---1-------4---1---1---
-10--9----0---2---2---4---8---0---3---
-10--9----2---0---3---5---6---2---2---
-8---7----0-------3---5---6---3---3---
------------------1---3---4-----------

INTRO: Em RIFF A x2


---------------------------------||
---------------------------------||
---------------------------------||
---------------------------------|| x2
-/7-7-7---5-7--------------------||
--------8-----8--7-7-7-7-7-7-7---||


---------------------------------||
---------------------------------||
---------------------------------||
-/7-7-7---5-7---/8-8-8-8-8-8-8---||x2
--------8-----8------------------||
---------------------------------||

Verse:


---7--7---7-7-----7-7---|---7--7---7-7-----7----
---8--8---7-7-----7-7---|---8--8---7-7-----7--7-
---9--9---9-9-----9-9---|---9--9---9-9-----9--7-
-9-9--9---9-9--9--9-9---|-9-9--9---9-9--9--9--7-
-7-------------7--------|-7-------------7-------
------------------------|-----------------------


---0--0---0-0-----0-0---|---0--0---0-0-----0-0-
---1--1---0-0-----0-0---|---1--1---0-0-----0-0-
---2--2---2-2-----2-2---|---2--2---2-2-----2-2-
-2-2--2---2-2--2--2-2---|-2-2--2---2-2--2--2-2-
-0-------------0--------|-0-0-----------0------
------------------------|----------------------

repeat verse x2

Pre-chorus: F E Am7
D7 x2

F E Am (let ring)

D (let ring) RIFF B

RIFF B (Bass arr for guitar)


---------------
---------------
---------------
-5-4-2--0-2-4--
---------------
---------------

Chorus: C C7 Am F


Am D(with RIFF C x2)

RIFF C

D l.r


-2-------10-(10)--10-10-10-10-||
-3-------10-(10)--10-10-10-10-||
-2-------12bu14---------------||
-0----------------------------||
------------------------------||
------------------------------||

in 3rd verse play RIFF D over chords

RIFF D


-------------------------|| ---------------------||
-/12-10------------------|| ---------------------||
--------12-11-9/7-7/9--9-||x2 -7/9-/11-11/12-12/14-||
-------------------------|| ---------------------||
-------------------------|| ---------------------||
-------------------------|| ---------------------||

x2


---------------------------||
----------------------||
-/12~~~~---12/15--12~~~~~~-||
-12-10----------------||
---------------------------||x2-------12-11-9/7-7/9-9||
---------------------------||
----------------------||
---------------------------||
---------------------||
---------------------------||
---------------------||

x2


----------

-5-(5)—
-7bu9—-


----------
----------
----------

Outro: Em D C Am

with crescendo of the following riffs over above
chords

(in E minor: E F# G A B C D E) just ad lib it sounds
just as good

RIFF E


------------------------------------------||
------------------------------------------||
-11--11--11-11-11-11-11-11-9/11/12-119---||
-x---x---x--x--x--x--x--x--x-x--x--x--x---|| x4
-9---9---9--9--9--9--9--9--7/9-/10-9-7---||
------------------------------------------||
---------------------------------||
---------------------------------||
-4-4-4---2-2-2--0-0-0------------||
-----------------------4-4--2--4-|| x2
---------------------------------||
---------------------------------||
-----------------------||
-----------------------||
-----------------------||
-2-2--2-2-2-2-2-2--2-2-|| x2
-----------------------||
-----------------------||

RIFF F
l.r l.r


--------------------------||
-12-(12)-----12-(12)------||
-14bu16------14bu16-------||
--------------------------|| x4
--------------------------||
--------------------------||

hold and repick


---------------------------||
-8---(8)-(8--8--8--8-)-----||
-10bu12--(12-12-12-12)-----|| x2
---------------------------||
---------------------------||
---------------------------||

hold and repick


--------------------------------||
-7--(7)---5-(5)-(5--5--5--5-)---||
-9bu11----7bu9--(9--9--9--9-)---|| x2
--------------------------------||
--------------------------------||
--------------------------------||

RIFF G
Am l.r


------------------|| -0------
-7--(7)-----------|| -1------
-9bu11------------|| x12 -2------
-----------2bu4---|| -2------
------------------|| -0------
------------------|| --------

End on Em

(“Scream until the war is over”)

The Convalesent – Tabbed by Dezfriel

Em-x79977
[Am-577555]F-133xx
[A-577655]A#-68866
D-x57755
C-x355x
G#-466xx

intro/verse– Em Am

Bridge/Chrous-F G# A Dx3 A D, C A# A D, G# C A#,A D A D

outro- Em D,Am D

To play the this songs, including The Convalescent by Manic Street Preachers by ukulele, the most crucial basic ukulele chords to learn are C chord, D chord, G chord, and Em chord.
These set you up to play a a lot of songs, and each of them is easy to learn.

If you are looking for Everything Must Go ukulele chords, you have come to the right site.
You can play versatile instrument Everything Must Go using ukulele or guitar.
This song by Manic Street Preachers can also be played by that instruments.
=

Everything Must Go chords has rhythm and included in Everything Must Go (1996) album.
You can also get other musical style, including jazz ukulele chords, country music ukulele chords, pop ukulele chords, world music ukulele chords, and rock ukulele chords here.

Everything Must Go by Manic Street Preachers Ukulele Chords


CHORDS:
Am/E – xxx555
Emaj7 – xxx444
C#m7 – x46454
Am – x02210
E – 022100
D – xx0232

INTRO:

No chord Am/E Emaj7


E I----------I----------I----------I--5---5-5-I--5---5-5-I--4---4-4-I--4---4-4-I
B I----------I----------I----------I--5---5-5-I--5---5-5-I--4---4-4-I--4---4-4-I
G I----------I----------I----------I--5---5-5-I--5---5-5-I--4---4-4-I--4---4-4-I
D I------2s7-I----------I-7--------I----------I----------I----------I----------I
A I----------I----------I----------I----------I----------I----------I----------I
E I----------I----------I----------I----------I----------I----------I----------I

VERSE:

[Am/E]


E I------5------------5---5----I-------5---------5---5------I
B I------5------------5---5----I-------5---------5---5------I
G I------5------------5---5----I-------5---------5---5------I
D I----------------------------I----------------------------I
A I----------------------------I----------------------------I
E I----------------------------I----------------------------I

Shed some Skin_____ for the fear with__


E I------4------------4---4----I-------4---------4---4------I
B I------4------------4---4----I-------4---------4---4------I
G I------4------------4---4----I-------4---------4---4------I
D I----------------------------I----------------------------I
A I----------------------------I----------------------------I
E I----------------------------I----------------------------I

____in

[Am/E]


E I------5------------5---5----I-------5---------5---5------I
B I------5------------5---5----I-------5---------5---5------I
G I------5------------5---5----I-------5---------5---5------I
D I----------------------------I----------------------------I
A I----------------------------I----------------------------I
E I----------------------------I----------------------------I

Is starting to hurt Me with every__


E I------4------------4---4----I----4-----4--4--4-----------I
B I------4------------4---4----I----4-----4--4--4-----------I
G I------4------------4---4----I----4-----4--4--4-----------I
D I----------------------------I----------------------------I
A I----------------------------I----------------------------I
E I----------------------------I----------------------------I

thing__ Freed From the


E I----------------------------I----------------------------I
B I-5-5---5--4-----------------I----------------------------I
G I-4-4---4--4-e.t.c-----------I-repeat---------------------I
D I-6-6---6--4-----------------I----------------------------I
A I----------------------------I----------------------------I
E I----------------------------I----------------------------I

Mem_________________ory escape from our


E I---0-----0--------0---------I--0-------------------------I
B I---1-----0--------1---------I--1-------------------------I
G I---2-----2--------2---------I--2-------------------------I
D I---2-----2--------2---------I--2-------------------------I
A I---0-----0--------0---------I--0-------------------------I
E I----------------------------I----------------------------I

Hi________st______ory His____tor_______y

E


E I-0--------------0--0--0---------I----------------------------I
B I-0--------------0--0--0---------I----------------------------I
G I-1--------------1--1--1---------I----------------------------I
D I-2--------------2--2--2-e.t.c---I--repeat--------------------I
A I-2--------------2--2--2---------I----------------------------I
E I-0--------------0--0--0---------I----------------------------I

and I just hope_______ that you-____ can for_


E I---0----------0-----0-------I-----0---------------------I
B I---1----------0-----1-------I-------0-------------0-----I
G I---2----------2-----2-------I---------5------5----------I
D I---2----------2-----2-------I------------7--------------I
A I---0----------0-----0-------I-5s7-----------------------I
E I----------------------------I---------------------------I

giv_____e us______


E I---------0-----2-------3----I-----2-----0-------2--------I
B I---3------------------------I----------------------------I
G I---2-----0-----2-------3----I-----2-----0-------2--------I
D I----------------------------I----------------------------I
A I----------------------------I----------------------------I
E I----------------------------I--------------------------0-I

but ev__er_______ything must


E I----0-------------0----0----I-0--------------------------I
B I----0-------------0----0----I-0--------------------------I
G I----1-------------1----1----I-1--------------------------I
D I----2-------------2----2----I-2------2---------2---------I
A I----2-------------2----2----I-2---2------2----------2----I
E I----0-------------0----0----I-0--------------------------I

Go____________________


E I----------------------------I----------------------------I
B I----------------------------I----------------------------I
G I----------------------------I----------------------------I
D I--2---2-------2---2---------I-----2---2-----2--2---------I
A I---------2-------------2----I--2---------2---------------I
E I----------------------------I------------------------0---I

And if you need_______ an ex_____pla_______________


E I----------------------------I---------0-----------------I
B I----------------------------I------------0------------0-I
G I----------------------------I---------------5-----5-----I
D I----------------------------I------------------7--------I
A I--0-----0----------0---0----I---------------------------I
E I-------------0--------------I--5s7----------------------I

na______________tion___


E I---------0------2-----3-----I----2------0---------2------I
B I---2------------------------I----------------------------I
G I---3-----0------2-----3-----I----2------0---------2------I
D I----------------------------I----------------------------I
A I----------------------------I----------------------------I
E I----------------------------I-------------------------0--I

then ev____ry___thing must

No chord


E I----------------------------I----------------------------I
B I----------------------------I----------------------------I
G I----------------------------I----------------------------I
D I----------------------------I----------------------------I
A I--5s7------5-----5----------I----------------------------I
E I----------------------5s7---I---7----5------3---5---3--0-I

go_____

BRIDGE 1:

[Am/E]


E I------5------------5---5----I-------5---------5---5------I
B I------5------------5---5----I-------5---------5---5------I
G I------5------------5---5----I-------5---------5---5------I
D I----------------------------I----------------------------I
A I----------------------------I----------------------------I
E I----------------------------I----------------------------I


E I------4------------4---4----I-------4---------4---4------I
B I------4------------4---4----I-------4---------4---4------I
G I------4------------4---4----I-------4---------4---4------I
D I----------------------------I----------------------------I
A I----------------------------I----------------------------I
E I----------------------------I----------------------------I

BRIDGE 2:

[Am/E]


E I------5------------5---5----I-------5---------5---5------I
B I------5------------5---5----I-------5---------5---5------I
G I------5------------5---5----I-------5---------5---5------I
D I----------------------------I----------------------------I
A I----------------------------I----------------------------I
E I----------------------------I----------------------------I


E I------4------------4---4----I-------4---------4---4------I
B I------4------------4---4----I-------4---------4---4------I
G I------4------------4---4----I-------4---------4---4------I
D I----------------------------I----------------------------I
A I----------------------------I----------------------------I
E I----------------------------I----------------------------I

[Am/E]


E I------5------------5---5----I-------5---------5---5------I
B I------5------------5---5----I-------5---------5---5------I
G I------5------------5---5----I-------5---------5---5------I
D I----------------------------I----------------------------I
A I----------------------------I----------------------------I
E I----------------------------I----------------------------I


E I------4------------4---4----I-------4--4-4-4--4-4-4---4--I
B I------4------------4---4----I-------4--4-4-4--4-4-4---4--I
G I------4------------4---4----I-------4--4-4-4--4-4-4---4--I
D I----------------------------I----------------------------I
A I----------------------------I----------------------------I
E I----------------------------I----------------------------I

Freed us ev_____en__


E I----------------------------I----------------------------I
B I-5-5---5--4-----------------I----------------------------I
G I-4-4---4--4-e.t.c-----------I-repeat---------------------I
D I-6-6---6--4-----------------I----------------------------I
A I----------------------------I----------------------------I
E I----------------------------I----------------------------I

________tually_____ just need to be Ha__


E I---0-----0--------0---------I--0-0-----------------------I
B I---1-----0--------1---------I--1-1-----------------------I
G I---2-----2--------2---------I--2-2-e.t.c-----------------I
D I---2-----2--------2---------I--2-2-----------------------I
A I---0-----0--------0---------I--0-0-----------------------I
E I----------------------------I----------------------------I

____________ppy _____ Happy____________

ENDING:


E I-0--------------0--0--0---------I----------------------------I
B I-0--------------0--0--0---------I----------------------------I
G I-1--------------1--1--1---------I----------------------------I
D I-2--------------2--2--2-e.t.c---I--repeat--------------------I
A I-2--------------2--2--2---------I----------------------------I
E I-0--------------0--0--0---------I----------------------------I

and I just hope_______ that you-____ can for_


E I---0----------0-----0-------I-----0---------------------I
B I---1----------0-----1-------I-------0-------------0-----I
G I---2----------2-----2-------I---------5------5----------I
D I---2----------2-----2-------I------------7--------------I
A I---0----------0-----0-------I-5s7-----------------------I
E I----------------------------I---------------------------I

giv_____e us______


E I---------0-----2-------3----I-----2-----0-------2--------I
B I---3------------------------I----------------------------I
G I---2-----0-----2-------3----I-----2-----0-------2--------I
D I----------------------------I----------------------------I
A I----------------------------I----------------------------I
E I----------------------------I--------------------------0-I

but ev__er_______ything must


E I----0-------------0----0----I-0--------------------------I
B I----0-------------0----0----I-0--------------------------I
G I----1-------------1----1----I-1--------------------------I
D I----2-------------2----2----I-2------------------------0-I
A I----2-------------2----2----I-2------------------------0-I
E I----0-------------0----0----I-0---0-0-0---0------0---0---I

Go____________________


E I--0--0------------------------I----------------------------I
B I--0--0------------------------I----------------------------I
G I--1--1-e.t.c------------------I----------------------------I
D I--2--2------------------------I--------repeat--------------I
A I--2--2------------------------I----------------------------I
E I--0--0------------------------I----------------------------I

And if you need_______ an ex_____pla_______________


E I---0--0---------------------I---------------------------I
B I---1--1---------------------I---------------------------I
G I---2--2---e.t.c-------------I-repeat--------------------I
D I---2--2---------------------I---------------------------I
A I---0--0---------------------I---------------------------I
E I----------------------------I---------------------------I

na______________tion___ a_______________tion


E I---------0------2-----3-----I----2------0---------2------I
B I---2------------------------I----------------------------I
G I---3-----0------2-----3-----I----2------0---------2------I
D I----------------------------I----------------------------I
A I----------------------------I------------------------2s7-I
E I----------------------------I----------------------------I

then ev____ry___thing must

[Am/E] [Am/E]


E I----------I----------I----------I----------I----------I----------I
B I----------I----------I----------I----------I----------I----------I
G I----------I----------I----------I---4s9s11-I-9--------I-9--------I
D I----------I----------I----------I----------I----------I----------I
A I-7--------I-7--------I-7--------I-7--------I----------I----------I
E I----------I----------I----------I----------I----------I----------I

Go____

No chord


E I----------------------------I----------------------------I
B I----------------------------I----------------------------I
G I-9-------9s2-----------2----I-2s1------------------------I
D I----------------------------I----------------------------I
A I----------------------------I----------------------------I
E I----------------------------I----------------------------I

SONG STRUCTURE
INTRO
VERSE 1(lyrics above)
BRIDGE 1
VERSE 2(same as verse1 lyrics below)
BRIDGE 2
VERSE 3(but from and i hope that you can forgive us-denoted be a )
ENDING

VERSE 2 LYRICS
I look to the future it makes my cry
but it seems too real to tell you why
Freed from the Century, with nothing but Memory, Memory
REST OF THE VERSE IS THE SAME

To play the this songs, including Everything Must Go by Manic Street Preachers by ukulele, the most important basic ukulele chords to learn are C chord, D chord, G chord, and Em chord.
These set you up to play a many of songs, and each of them is easy to learn.

  • 1
  • 2