If you are searching for Great Big White World ukulele chords, you’ve visit to the right site.
You can play versatile instrument Great Big White World using ukulele or guitar.
This song by Marilyn Manson can also be played by that instruments.
=

Great Big White World chords has rhythm and included in Mechanical Animals (1998) album.
You can also get other musical style, including jazz ukulele chords, country music ukulele chords, pop ukulele chords, world music ukulele chords, and rock ukulele chords here.

Great Big White World by Marilyn Manson Ukulele Chords


Great big white world by Marilyn Manson
Mechanical animals

I got this out of my acoustic guitar, so it might not be very accurate
(sounds very close though)

Any comments or corrections please mail them

h – hammer on
p – pull off

Standard Tunning

(Riff 1)

e———————————–
B–1—4—3h4—0–1—4—3—1—
G———————————–
D———————————–
A———————————–
E———————————–

(Riff 2) I´m not sure about this one

e–9—6—11—8—7—4—7—4—
B———————————–
G———————————–
D———————————–
A———————————–
E———————————–

(Riff 3)

e———————————–
B–1—4—3—1—4—3—1—4—-
G———————————–
D———————————–
A———————————–
E———————————–

Riff 1
(first five lines)

Riff 2

Riff 3
(two lines)

Pre-Chorus:
Cause it´s a …..



Chorus:




Riff 1

Back to pre chorus

Chorus (with a little varition: from A#5 goes back to F5, then just goes as
the first time)

Riff 3

Chords:

e———————–
B———————–
G———————–
D–3—6—10—8—5—
A–3—6—10—8—5—
E–1—4—8—-6—3—

To play the most songs, including Great Big White World by Marilyn Manson by ukulele, the most important basic ukulele chords to learn are C chord, D chord, G chord, and Em chord.
These set you up to play a a lot of songs, and each of them is easy to master.

If you are searching for If I Was Your Vampire ukulele chords, you already come to the right site.
You can play versatile instrument If I Was Your Vampire using ukulele or guitar.
This song by Marilyn Manson can also be played by that instruments.
=

If I Was Your Vampire chords has rhythm and included in Eat Me, Drink Me (2007) album.
You can also get other musical style, including jazz ukulele chords, country music ukulele chords, pop ukulele chords, world music ukulele chords, and rock ukulele chords here.

If I Was Your Vampire by Marilyn Manson Ukulele Chords


if you’re reading this before june 5th you’re probably wondering: how could this guy
have tabbed that song yet?

well as you know marilyn manson is releasing a new album this summer and 2 songs have

anyway here goes

main verse riff


e|----------------|----------------|---------------|
B|----------------|----------------|---------------|
G|----------------|----------------|---------------|
D|----------------|----------------|---------------|
A|--2-3~~---------|--2-3~~---------|--2-3-2-0-5-3-2|
E|0--0------------|0--0------------|0--0-----------|


chorus:


e|----------------|----------------|-------------------|
B|----------------|----------------|-------------------|
G|----------------|----------------|-------------------|
D|--9-10----------|--9-10----------|--9--10-9-7-12-10-9|
A|7--7-----7-7-7-7|7--7-----7-7-7-7|7--7---------------|
E|---------0-0-0-0|---------0-0-0-0|-------------------|


then comes the verse again and a chorus

break:

I’m not sure about this part, but at least these power chords that I have written down
fit, so if you’re unable to find it out yourself, you can always use this riff.


e|----------------|----------------|-------------------|
B|----------------|----------------|-------------------|
G|----------------|----------------|-------------------|

D|7777777777777777|5555555555555555|3333333333333333333|
A|5555555555555555|3333333333333333|1111111111111111111|


E|----------------|----------------|-------------------|

then comes a verse again and then a chorus followed by this:

outro:


e|------------------------|------------------------|
B|------------------------|------------------------|
G|0~----------0-----------|0-----------0----5-4~---|
D|----4-2-1-2---4--2------|----4-2-1-2---4---------|
A|-------------------3-2--|------------------------|
E|------------------------|------------------------|


verse x4
chorus x2
verse x4
chorus x2
break x2
verse x3
chorus x4
outro x3

I’m not sure if I got the number of times you are supposed to play the riff right but
just gonna have to figure that out yourself.

please rate, thank you!:D

To play the this songs, including If I Was Your Vampire by Marilyn Manson by ukulele, the most important basic ukulele chords to learn are C chord, D chord, G chord, and Em chord.
These set you up to play a ton of songs, and each of them is easy to learn.

If you are looking for If I Was Your Vampire ukulele chords, you have come to the right place.
You can play versatile instrument If I Was Your Vampire using ukulele or guitar.
This song by Marilyn Manson can also be played by that instruments.
=

If I Was Your Vampire chords has rhythm and included in Eat Me, Drink Me (2007) album.
You can also get other musical style, including jazz ukulele chords, country music ukulele chords, pop ukulele chords, world music ukulele chords, and rock ukulele chords here.

If I Was Your Vampire by Marilyn Manson Ukulele Chords

if you’re reading this before june 5th you’re probably wondering: how could this guy
have tabbed that song yet?

well as you know marilyn manson is releasing a new album this summer and 2 songs have

anyway here goes

main verse riff


e|----------------|----------------|---------------|
B|----------------|----------------|---------------|
G|----------------|----------------|---------------|
D|----------------|----------------|---------------|
A|--2-3~~---------|--2-3~~---------|--2-3-2-0-5-3-2|
E|0--0------------|0--0------------|0--0-----------|


chorus:


e|----------------|----------------|-------------------|
B|----------------|----------------|-------------------|
G|----------------|----------------|-------------------|
D|--9-10----------|--9-10----------|--9--10-9-7-12-10-9|
A|7--7-----7-7-7-7|7--7-----7-7-7-7|7--7---------------|
E|---------0-0-0-0|---------0-0-0-0|-------------------|


then comes the verse again and a chorus

break:

I’m not sure about this part, but at least these power chords that I have written down
fit, so if you’re unable to find it out yourself, you can always use this riff.


e|----------------|----------------|-------------------|
B|----------------|----------------|-------------------|
G|----------------|----------------|-------------------|

D|7777777777777777|5555555555555555|3333333333333333333|
A|5555555555555555|3333333333333333|1111111111111111111|


E|----------------|----------------|-------------------|

then comes a verse again and then a chorus followed by this:

outro:


e|------------------------|------------------------|
B|------------------------|------------------------|
G|0~----------0-----------|0-----------0----5-4~---|
D|----4-2-1-2---4--2------|----4-2-1-2---4---------|
A|-------------------3-2--|------------------------|
E|------------------------|------------------------|


verse x4
chorus x2
verse x4
chorus x2
break x2
verse x3
chorus x4
outro x3

I’m not sure if I got the number of times you are supposed to play the riff right but
just gonna have to figure that out yourself.

please rate, thank you!:D

To play the this songs, including If I Was Your Vampire by Marilyn Manson by ukulele, the most important basic ukulele chords to learn are C chord, D chord, G chord, and Em chord.
These set you up to play a many of songs, and each of them is easy to master.

If you are looking for Fundamentally Loathsome ukulele chords, you already come to the right site.
You can play versatile instrument Fundamentally Loathsome using ukulele or guitar.
This song by Marilyn Manson can also be played by that instruments.
=

Fundamentally Loathsome chords has rhythm and included in Mechanical Animals (1998) album.
You can also get another musical genres, including jazz ukulele chords, country music ukulele chords, pop ukulele chords, world music ukulele chords, and rock ukulele chords here.

Fundamentally Loathsome by Marilyn Manson Ukulele Chords


1st Verse

And I want to wake up in your white, white sun
And i want to wake up in your world with no pain
But I’ll just suffer in a hope to die someday
While you are numb all of the way

(-2-3-4- little run on the D string, octave up on the song)

Chorus

When I hate it I know I can feel
but When you love you know it’s not real no
When I hate it I know I can feel
but When you love you know it’s not real
2nd Verse

Now I am resigned to this wicked fking world
On its way to hell
The living are dead and I hope to join them too
I know what to do and I do it well

Chorus

When I hate it I know I can feel
but When you love you know it’s not real no
When I hate it I know I can feel
but When you love you know it’s not real

Solo



Outro

Shoot myself to love you
If I loved myself I’d be shooting you huh huh huh
Aah yeah Shoot myself to love you
If I loved myself I’d be shooting you huh huh huh

To play the most songs, including Fundamentally Loathsome by Marilyn Manson by ukulele, the most important basic ukulele chords to learn are C chord, D chord, G chord, and Em chord.
These set you up to play a many of songs, and each of them is easy to master.

If you are looking for Great Big White World ukulele chords, you’ve visit to the right site.
You can play versatile instrument Great Big White World using ukulele or guitar.
This song by Marilyn Manson can also be played by that instruments.
=

Great Big White World chords has rhythm and included in Mechanical Animals (1998) album.
You can also find other musical genres, including jazz ukulele chords, country music ukulele chords, pop ukulele chords, world music ukulele chords, and rock ukulele chords here.

Great Big White World by Marilyn Manson Ukulele Chords

Great big white world by Marilyn Manson
Mechanical animals

I got this out of my acoustic guitar, so it might not be very accurate
(sounds very close though)

Any comments or corrections please mail them

h – hammer on
p – pull off

Standard Tunning

(Riff 1)

e———————————–
B–1—4—3h4—0–1—4—3—1—
G———————————–
D———————————–
A———————————–
E———————————–

(Riff 2) I´m not sure about this one

e–9—6—11—8—7—4—7—4—
B———————————–
G———————————–
D———————————–
A———————————–
E———————————–

(Riff 3)

e———————————–
B–1—4—3—1—4—3—1—4—-
G———————————–
D———————————–
A———————————–
E———————————–

Riff 1
(first five lines)

Riff 2

Riff 3
(two lines)

Pre-Chorus:
Cause it´s a …..



Chorus:




Riff 1

Back to pre chorus

Chorus (with a little varition: from A#5 goes back to F5, then just goes as
the first time)

Riff 3

Chords:

e———————–
B———————–
G———————–
D–3—6—10—8—5—
A–3—6—10—8—5—
E–1—4—8—-6—3—

To play the most songs, including Great Big White World by Marilyn Manson by ukulele, the most crucial basic ukulele chords to learn are C chord, D chord, G chord, and Em chord.
These set you up to play a ton of songs, and each of them is easy to master.

If you are searching for My Monkey ukulele chords, you have come to the right site.
You can play versatile instrument My Monkey using ukulele or guitar.
This song by Marilyn Manson can also be played by that instruments.
=

My Monkey chords has rhythm and included in Portrait of an American Family (1994) album.
You can also get another musical genres, including jazz ukulele chords, country music ukulele chords, pop ukulele chords, world music ukulele chords, and rock ukulele chords here.

My Monkey by Marilyn Manson Ukulele Chords


[Intro/Post chorus] (0:18): x4 (Play Last 2 Times With Wah)


e|---------------------------|------------------12-12-12-12-12-12--|
B|--2n--7n/n/-5--5-5-5-5--|--2n--7n/n/-5--12-12-14-12-15-12--|
G|--2n--6n/n/-6--4-4-4-4--|--2n--6n/n/-6--12-12-12-12-12-12--|
D|--2n--5n/n/-5--3-3-3-3--|--2n--5n/n/-5--12-12-12-12-12-12--|
A|--0n----------------------|--0n--------------------------------|
E|---------------------------|-------------------------------------|

(0:42)


e|-----------3---------------|--8-----8---------------|
B|--2---------2--------------|--8---------------------|
G|--2----------2n/n/n/----|--6-------6n/----------|
D|--2------------------------|--7-------------7n/----|
A|--0------------------------|------------------------|
E|---------------------------|------------------------|

(1:06):


PM-------------------------------| PM-------------------------------|
e|-----------------------------------| |-----------------------------------|
B|-----------------------------------| |-----------------------------------|
G|-----------------------------------| x2 |------------------------------2h4--| x2
D|-----------------------------------| |--2h4-4-4-2h4-4-4-2h4-4-4-2h4------|
A|------------------------------0h2--| |-----------------------------------|
E|--0h2-2-2-0h2-2-2-0h2-2-2-0h2------| |-----------------------------------|

[Intro/Post Chorus] (01:18): x2


e|---------------------------|------------------12-12-12-12-12-12--|
B|--2n--7n/n/-5--5-5-5-5--|--2n--7n/n/-5--12-12-14-12-15-12--|
G|--2n--6n/n/-6--4-4-4-4--|--2n--6n/n/-6--12-12-12-12-12-12--|
D|--2n--5n/n/-5--3-3-3-3--|--2n--5n/n/-5--12-12-12-12-12-12--|
A|--0n----------------------|--0n--------------------------------|
E|---------------------------|-------------------------------------|

(1:31):


e|-----------3---------------|--8-----8---------------|
B|--2---------2--------------|--8---------------------|
G|--2----------2n/n/n/----|--6-------6n/----------|
D|--2------------------------|--7-------------7n/----|
A|--0------------------------|------------------------|
E|---------------------------|------------------------|

(1:54):


PM-----------------------| PM-----------------------|
e|-----------------------------|-----------------------------|
B|-----------------------------|-----------------------------|
G|-----------------------------|-----------------------------| x2
D|-----------------------------|-----------------------------|
A|--------------------------3--|--------------------------4--|
E|--5-5-0-3-5-5-0-5-5-0-3-5----|--5-5-0-3-5-5-0-5-5-0-3-5----|
e|-----------------------------|-----------------------------|
B|-----------------------------|-----------------------------|
G|-----------------------------|-----------------------------|
D|-----------------------------|-----------------------------|
A|--------------------------3--|--------------------------4--|
E|--5-5-0-3-5-5-0-5-5-0-3-5----|--5-5-0-3-5-5-0-5-5-0-3-5----|
Wah------------------------| Wah-------------------|
e|-----------------------------|----------------n/--|
B|-----------------------------|----------------n/--|
G|-----------------------------|----------------n/--|
D|-----------------------------|----------------n/--|
A|--------------------------3--|------------------------|
E|--5-5-0-3-5-5-0-5-5-0-3-5----|--5-5-0-3-5-5-5---------|

(2:18)


PM-------------------------------| PM-------------------------------|
e|-----------------------------------| |-----------------------------------|
B|-----------------------------------| |-----------------------------------|
G|-----------------------------------| x2 |------------------------------2h4--| x2
D|-----------------------------------| |--2h4-4-4-2h4-4-4-2h4-4-4-2h4------|
A|------------------------------0h2--| |-----------------------------------|
E|--0h2-2-2-0h2-2-2-0h2-2-2-0h2------| |-----------------------------------|

[Bridge 2] (2:30):


Wah------------|
e|-------------------| |-----------------------3----------|
B|-------------------| |----------------------------------|
G|--x-x-----5b(6)----| (2:39) |--x-x-----5b(6)--5b(6)---5b(6)----| (2:44)
D|------5h7----------| |------5h7-------------------------|
A|-------------------| |----------------------------------|
E|-------------------| |----------------------------------|

(2:55):

(Rhythm)


e|-----------------------------------|
B|-----------------------------------|
G|-----------------------------------| x2
D|-----------------------------------|
A|-----------------------------------|
E|--5-5-5-5-5-5-5-0-3-3-3-3-3-3-3-4--|

(Lead)


e|--------------------|----------------|------------------------------|--------------------------------------|
B|--------------------|-14-14-14p10----|-17-17h20-20-20p17-17---------|--------------------------------------|
G|--14----16-16-16p14-|-------------14-|----------------------18b(19)-|-18-18-1816-16-16-1614-1412b(15)---|
D|--------------------|----------------|------------------------------|--------------------------------------|
A|--------------------|----------------|------------------------------|--------------------------------------|
E|--------------------|----------------|------------------------------|--------------------------------------|

[Intro/Post Chorus] (3:06) x8 (Without Wah x2 With Wah x2 Without Wah x4)


e|---------------------------|------------------12-12-12-12-12-12--|
B|--2n--7n/n/-5--5-5-5-5--|--2n--7n/n/-5--12-12-14-12-15-12--|
G|--2n--6n/n/-6--4-4-4-4--|--2n--6n/n/-6--12-12-12-12-12-12--|
D|--2n--5n/n/-5--3-3-3-3--|--2n--5n/n/-5--12-12-12-12-12-12--|
A|--0n----------------------|--0n--------------------------------|
E|---------------------------|-------------------------------------|

(3:54):

e|—–|
B|–2–|
G|–2–|
D|–2–|
A|–0–|
E|—–|

To play the this songs, including My Monkey by Marilyn Manson by ukulele, the most crucial basic ukulele chords to learn are C chord, D chord, G chord, and Em chord.
These set you up to play a many of songs, and each of them is easy to learn.

If you are looking for Organ Grinder ukulele chords, you’ve come to the right site.
You can play versatile instrument Organ Grinder using ukulele or guitar.
This song by Marilyn Manson can also be played by that instruments.
=

Organ Grinder chords has rhythm and included in Portrait of an American Family (1994) album.
You can also find another musical genres, including jazz ukulele chords, country music ukulele chords, pop ukulele chords, world music ukulele chords, and rock ukulele chords here.

Organ Grinder by Marilyn Manson Ukulele Chords

Subject: ./m/marilyn_manson/organ_grinder.tab
Tabbed by: spex49d@prodigy.com (John Vettese)

ORGAN GRINDER
Intro (Synth, Do this on guitar w/ flanger or chorus)
1: 13 16 12 13 16 12
2: 14 13 14 13

Verse:
3: 9 9 9 9 9 9
4: 9 9 9 9 9 9 5 5 5 5 8 8 8 8
5: 7 7 7 7 7 7 5 5 5 5 8 8 8 8
6: 3 3 3 3 6 6 6 6

1st Wah Solo (play 2x)
2: 8 8
3: 9 7 7 7 7^9 9 7 7 7 7^9 9 9
4: 5 5 5 5 8 8 8 8
5: 5 5 5 5 8 8 8 8
6: 3 3 3 3 6 6 6 6

Chorus
3: 7 7 7 7 7 7 7 7 13 13 13 13 13 13 13 13 7 7 7 7 7 7 7 7
4: 7 7 7 7 7 7 7 7 13 13 13 13 13 13 13 13 7 7 7 7 7 7 7 7
5: 5 5 5 5 5 5 5 5 11 11 11 11 11 11 11 11 5 5 5 5 5 5 5 5
6:

3:
4: 7 6 7 6
5: 7 6 7 6
6: 5 4 5 4

Play that 2x
Play this for “I wear this fucking mask”
3: 7 7 7 7 7 7 7 7 7 7 7 7 7 7 7 7
4: 7 7 7 7 7 7 7 7 6 7 6 7 7 7 7 7 7 7 7 7 7 6 7 6
5: 5 5 5 5 5 5 5 5 6 7 6 7 5 5 5 5 5 5 5 5 7 6 7 6
6: 4 5 4 5 5 4 5 4

Then for the second “Here is my real head” play the first riff.

Post chorus wah solo
1st time (play this 2x)
1: 2[)] 2^0 2[)] 2^0 2[)] 2^0 6^7^6^7^6^7^6^7
2: 5^3^0 5^3^0 5^3^0
2nd time (after that 2x, play this 4x)
1: 3 5 (5)[)]
2: 5

YcSaTtYh 0 0 yCsAtTyH
0
/^

+—————————+

John Vettese
In Ambler, PA (near Philly)

e-mail: spex49d@prodigy.com ———————+

on the web: http://www.acy.digex.net:4224/spex49d

+————————————————-+

To play the most songs, including Organ Grinder by Marilyn Manson by ukulele, the most important basic ukulele chords to learn are C chord, D chord, G chord, and Em chord.
These set you up to play a a lot of songs, and each of them is easy to master.

If you are searching for Mechanical Animals ukulele chords, you have visit to the right site.
You can play versatile instrument Mechanical Animals using ukulele or guitar.
This song by Marilyn Manson can also be played by that instruments.
=

Mechanical Animals chords has rhythm and included in Mechanical Animals (1998) album.
You can also get other musical style, including jazz ukulele chords, country music ukulele chords, pop ukulele chords, world music ukulele chords, and rock ukulele chords here.

Mechanical Animals by Marilyn Manson Ukulele Chords


intro/verse
e|
B|


G|-----8--7^--------8--7-------------8--7^^--------8--7---------
D|-10---------8-10--------10---8-10----------8-10--------10--8--

A|
E|

break(keyboard arranged for guitar)


e|11-------13----------------------
B|11--13-------15---13-------13----
G|---------15-----------13-------13
D|------------------15-------15----

A|
E|

then(“I’m not attached…”)
e|
B|


G|----8-7----8-7----8---8-7---8-7---8---8-7---8-7---8---8-7---8-7---8--
D|-10-----10-----10---9-----9-----9---8-----8-----8---7-----7-----7----

A|
E|

pre-chorus(“Cause it’s a great big white world and we are drained……”)


e|--------------------------------------8--

B|


G|-------8-10-10^--8---------8-10-10^-8----
D|-10-10-------------10^--10---------------

A|
E|

1st chorus
e|
B|
G|
D|333333333/666666666/1010101010101010101010888888888886666666666655555555
A|333333333/666666666/1010101010101010101010888888888886666666666655555555


E|111111111/444444444/8-8-8-8-8-8-8-8-8-8-8-666666666664444444444433333333

chorus and keyboard solo backing
e|
B|
G|
D|333333333/666666666/101010101010101010101088888888888
A|333333333/666666666/101010101010101010101088888888888


E|111111111/444444444/8-8-8-8-8-8-8-8-8-8-8-66666666666

chorus and behind keyboard solo (cont.)
e|
B|
G|
D|333333333/666666666/1010101010101010101010888888888886666666666655555555
A|333333333/666666666/1010101010101010101010888888888886666666666655555555


E|111111111/444444444/8-8-8-8-8-8-8-8-8-8-8-666666666664444444444433333333

THATS IT!!!
When you play the 2nd chorus and solo backing it sounds good if you slide
from the 8 chord to the 3 chord this is how they play it live
8 3

To play the most songs, including Mechanical Animals by Marilyn Manson by ukulele, the most important basic ukulele chords to learn are C chord, D chord, G chord, and Em chord.
These set you up to play a ton of songs, and each of them is easy to master.