If you are searching for Crusher Destroyer ukulele chords, you already visit to the right site.
You can play versatile instrument Crusher Destroyer using ukulele or guitar.
This song by Mastodon can also be played by that instruments.
=

Crusher Destroyer chords has rhythm and included in Remission (2002) album.
You can also get other musical style, including jazz ukulele chords, country music ukulele chords, pop ukulele chords, world music ukulele chords, and rock ukulele chords here.

Crusher Destroyer by Mastodon Ukulele Chords


Mastodon
Crusher Destroyer

Intro 1: Verse 1: Verse 2: + Verse 1


|------| |-------------| |---------------|
|------| |-------------| |---------------|
|------| |-------------| |---------------|
|------| |-4-----4-----| |-4-4-----4-----|
|-x-0-| |-2-3---2-5-3-| |-2-2-3---2-5-3-|
|-x-0-| |---1-----3-1-| |-----1-----3-1-|

Verse 1 x6

Chorus 1: Chorus 2: Verse 3:


|-------------| |---0---0-| |-0-----|
|-------------| |---0---0-| |-0-----|
|-------------| |---------| |-2-----|
|-3/7---3/10--| |-3---3---| |-3-----|
|-2/6---2/9---| |-2---2---| |-3-----|
|-1/5---1/8---| |-1---1---| |-1--\-|

Chorus 1 + Chorus 2 x4

Verse 1 x4

Verse 3

Verse 1 x2

Verse 3

Verse 1 x4

Chorus 1 + Chorus 2 x4

Verse 4: + Verse 5 x2


|------------------------------------------------|
|------------------------------------------------|
|------------------------------------------------|
|-9tr-'13tr--10tr--7tr-10tr-9tr-7tr-----9tr-13tr-|
|------------------------------------------------|
|-7tr--11tr---8tr--5tr'-8tr-7tr-5tr-8tr-7tr-11tr-|

Verse 5:


|-------------------------------|
|-------------------------------|
|-8-8-8-8-8--12--9--9--9--9--9--|
|-------------------------------|
|-------------------------------|
|-------------------------------|

Bridge:


|----------------------------------------|
|----------------------------------------|
|-12-12-12-1211-11-9--15-15-15-1514-14-|
|----------------------------------------|
|-10-10-10-10-9--9-7--13-13-13-1312-12-|
|----------------------------------------|

Solo 1:


|------7------7----7-7------7-7------7-7-7---|
|----7------7------7-7------7-7------7-7-7---|
|-9b-----9b-----9b-------9b-------9b---------|
|--------------------------------------------|
|--------------------------------------------|
|--------------------------------------------|

Bridge

Solo 2:


|------7-------7----------------------------|
|----7----7-10------------------------------|
|-9b--------------10p9p7----7-9--9b--7------|
|-------------------------9------------9-9--|
|-------------------------------------------|
|-------------------------------------------|

Verse 1 x4

Chorus 1 + Chorus 2 x4

To play the this songs, including Crusher Destroyer by Mastodon by ukulele, the most crucial basic ukulele chords to learn are C chord, D chord, G chord, and Em chord.
These set you up to play a ton of songs, and each of them is easy to learn.

If you are searching for Blood and Thunder ukulele chords, you have come to the right site.
You can play versatile instrument Blood and Thunder using ukulele or guitar.
This song by Mastodon can also be played by that instruments.
=

Blood and Thunder chords has rhythm and included in Leviathan (2004) album.
You can also get another musical genres, including jazz ukulele chords, country music ukulele chords, pop ukulele chords, world music ukulele chords, and rock ukulele chords here.

Blood and Thunder by Mastodon Ukulele Chords


“Blood and Thunder”
Mastodon
Leviathan
copyright (c) Relapse records 2004

in standard tuning down 1 whole step

KEY:
/ slide up
slide down
h hammer on
p pull off
bu bend up till it reaches pitch of note in parentheses
bd bend down || || || || || || || ||

Intro and Verses:


----------------------------------------------------------------------------|
----------------------------------------------------------------------------|
----------------------------------------------------------------------------|
-7----7/9----7/9----7/9----7/9--10----7/9--10----10-10-97/109-------------|
-5----5/9----5/9----5/7----5/7--8-----5/7--8------8--8-75/8 7-------------|
---00-----00-----00-----00---------00---------00----------------------------|

Choruses:


-----------------------------------------------------------------------------|
-----------------------------------------------------------------------------|
-----------------------------------------------------------------------------|
----------------------------------------12-12--9-9--6--12--9-9--6------------|
-2--8-8--5-5--11-11--7-7--14-14--11-11--10-10--7-7--4--10--7-7--4-7bu(8)bd(7-|
-0--6-6--3-3---9--9--9-9--12-12---9--9---------------------------------------|

Interlude/Solo section:
(low harmony)


----------------------------------------------------------------------------|
-----------------------5-------------------------5---5----------------------|
-4-5-4h5p4---4-5-4-5-7-----4-5-4h5p4---4-5-4-5-7---7------------------------|
-----------7-------------------------7--------------------------------------|
----------------------------------------------------------------------------|
----------------------------------------------------------------------------|
----------------------------------------------------------------------------|
-----------------------3-------------------------3---3----------------------|
-2-3-2h3p2---2-3-2-3-5-----2-3-2h3p2---2-3-2-3-5---5------------------------|
-----------5-------------------------5--------------------------------------|

(play begining of riffs like whats in brackets after u play through whats


[-------]-------------------------| above twice)
[-------]------------5------------|(same patterns follows for high harmony)
[-4-5-4-]--4-5-4-5-7--------------|
[-------]7------------------------|

(high harmony)


----------------------------------12---------------------------------12---12-|
-12-13-12h13p12----12-13-12-13-15----12-13-12h13p12----12-13-12-13-15---15---|
----------------14----------------------------------14-----------------------|
-----------------------------------------------------------------------------|
-----------------------------------------------------------------------------|
-----------------------------------------------------------------------------|
----------------------------------10---------------------------------10---10-|
-10-11-10h11p10----10-11-10-11-13----10-11-10h11p10----10-11-10-11-13---13---|
----------------12----------------------------------12-----------------------|
-----------------------------------------------------------------------------|
-----------------------------------------------------------------------------|
-----------------------------------------------------------------------------|

Rhythm during 1st 2 times of solo riff:


----------------------------------------------------------------------------|
----------------------------------------------------------------------------|
----------------------------------------------------------------------------|
-4--4----4--4----2--2----2--2-----------------------------------------------|
-2--2----2--2----0--0----0--0-----------------------------------------------|
----------------------------------------------------------------------------|

Interlude after Solo section(4X):


----------------------------------------------------------------------------|
----------------------------------------------------------------------------|
----------------------------------------------------------------------------|
-9-9-9-9-9-9-9-9-9-9-9-9--7-7-7-7--10-10-10-9--7-7-7-7-7-7-7-7--------------|
-7-7-7-7-7-7-7-7-7-7-7-7--5-5-5-5---8--8--8-7--5-5-5-5-5-5-5-5--------------|
----------------------------------------------------------------------------|
----------------------------------------------------------------------------|
----------------------------------------------------------------------------|
----------------------------------------------------------------------------|
-4-4-4-4--7-7-7-5--4-4-4-4-4-4-4-4------------------------------------------|
-2-2-2-2--5-5-5-3--2-2-2-2-2-2-2-2--6-6-6-6--9-9-9-7--6-6-6-6--4-4-4-4------|
------------------------------------4-4-4-4--7-7-7-5--4-4-4-4--2-2-2-2------|

Chorus twice and then verse twice

Outro: [Last 2 Chords]


------------------------------------------------------------[-------------]-|
-10-9-9\\-----------------7-9-9\\-----------------------[-------------]-|
-10-9-9\\-----------------7-9-9\\-----------------------[-------------]-|
-10-9-9\\-----------------7-9-9\\-----------------------[-7--9--------]-|
--8-7-7\\-----------------5-7-7\\-----------------------[-5--7--------]-|
------------2-1-0-1-2-1-0-1-----------2-1-0-1-2-1-0-1-------[-------------]-|

harmony during ourto is:


------------------------------|
------------------------------|
------------------------------|
-12/13-13-THEN-1413-13-------|
-10/11-11------1211-11-------|

The End
ENJOY!!!

To play the this songs, including Blood and Thunder by Mastodon by ukulele, the most crucial basic ukulele chords to learn are C chord, D chord, G chord, and Em chord.
These set you up to play a ton of songs, and each of them is easy to master.

If you are searching for Iron Tusk ukulele chords, you already visit to the best site.
You can play versatile instrument Iron Tusk using ukulele or guitar.
This song by Mastodon can also be played by that instruments.
=

Iron Tusk chords has rhythm and included in Leviathan (2004) album.
You can also find other musical style, including jazz ukulele chords, country music ukulele chords, pop ukulele chords, world music ukulele chords, and rock ukulele chords here.

Iron Tusk by Mastodon Ukulele Chords

. – palm mute / – slide up to
– slide down to ~ – vibrato
h – hammer on b – Bend
p – pull off Suffixes for bend
t – tap f – full bend h – half bend
ph – pinched harmonic q – quarter bend t – tap bend
– see comment ^ – Hold bend r release bend
x – Stuccatto ~ – vibrato bend
, – slight palm mute () – ghost note, sustained note
” – tremolo note – Trill

Tuning: A G C F A D

D||—-|—-||————————|———————-|
A||—-|—-||————————|———————-|
F||—-|—-||———————–|———————-|
C||Drum|Fill||———————–|———————-|
G||—-|—-||————————|———————-|
A||—-|—-||—0–0–0–12–12–12–|–0–0–0–12–12–0–|
|——————–|——————||
|——————–|——————||
|——————–|—————–||
|——————–|—————–||
|——————–|——————||
|–13–10–10——–|–8—-8-~~~—||

[Pre Verse]

||————————|———————-|——————–|
||————————|———————-|——————–|
||———————–|———————-|——————–|
||———————–|———————-|——————–|
||————————|———————-|——————–|
||—0–0–0–16–16–16–|–0–0–0–16–16–0–|–17–14–14——–|
|——————–|——————||
|——————–|——————||
|——————–|—————–||
|——————–|—————–||
|——————–|——————||
|–17–14–14——–|-12—12-11~——||

[Verse I]

||———————|——————-|
||———————|——————-|
||——————–|——————-|
||——————–|————–4–2-|
||—2–2–2–2–2–2–|–2–2–2–2–2–0-|
||—0–0–0–0–0–0–|–0–0–0–0——-|
|———————|——————–|——————–|
|———————|——————–|——————–|
|———————|——————–|——————–|
|–4——————|–7–7–7–6–6–6–|——————–|
|–2–2–2–2–2–2—|–5–5–5–4–4–4–|–2–2–2–2–2–2–|
|—–0–0–0–0–0—|——————–|–0–0–0–0–0–0–|
|———————|——————–|——————-||
|———————|——————–|——————-||
|———————|——————–|——————||
|————–4–2—|–4—————–|——————||
|–2–2–2–2–2–0—|–2–2–2–5–5–5–|–10–10–10——-||
|–0–0–0–0———|—–0–0–3–3–3–|–8—8—8—7—-||

[Bridge I]
1st

G||——————–|–15—-14—-15–14–|——————–|
U||——————–|———————-|——————–|
I||–4–4–4–7–7–7–|–12—-11—-12–11–|–4–4–4–7–7–7–|
T||——————–|———————-|——————–|
A||–2–2–2–5–5–5–|———————-|–2–2–2–5–5–5–|
R||——————–|———————-|——————–|

G||——————–|———————-|——————–|
U||——————–|———————-|——————–|
I||——————–|———————-|——————–|
T||——————–|———————-|——————–|
A||–2–2–2–5–5–5–|–10—-9—-10–9—-|–2–2–2–5–5–5–|
R||–0–0–0–3–3–3–|–8—–7—-8—7—-|–0–0–0–3–3–3–|

1st

G|–15–15–15–14—–|———————-|–15—14—15–14–|
U|———————|———————-|——————–|
I|–12–12–12–11—–|–4–4–4–7–7–7—-|–12—11—12–11–|
T|———————|———————-|——————–|
A|———————|–2–2–2–5–5–5—-|——————–|
R|———————|———————-|——————–|

G|———————|———————-|——————-||
U|———————|———————-|——————-||
I|———————|———————-|——————-||
T|———————|———————-|——————-||
A|–10–10–10–9——|–2–2–2–5–5–5—-|–10—9—-10–9–||
R|–8—8—8—7——|–0–0–0–3–3–3—-|–8—-7—-8—7–||

[Repeat Intro]

[Repeat PreVerse]

[Repeat Bridge I]

[MidSection]

||———————|——————–|
||———————|——————–|
||——————–|——————–|
||——————–|——————–|
||———————|——————–|
||—0–2–0–3–2–0–|–0–2–0–3–2–0–|
||–PM————————————–|
|———————-|——————–|
|———————-|——————–|
|———————-|——————–|
|———————-|——————–|
|————-8—–8–|———–8—–8–|
|–0–3–0—-6—–6–|–0–3–0–6—–6–|
|———————-|——————–|
|———————-|——————–|
|———————|——————–|
|———————|——————–|
|———————-|——————–|
|—0–2–0–3–2–0—|–0–2–0–3–2–0–|
|–PM—————————————|
|———————-|——————-||
|———————-|——————-||
|———————-|——————||
|———————-|——————||
|———–10—–10–|———–10–10–||
|–0–3–0–8——8—|–0–3–0–8—8—||

[Interlude]
1st

G||————-|————–|————-|————–|
U||————-|————–|————-|————–|
I||————|————–|————-|————–|
T||-11———|————–|————-|————–|
A||–0———-|–11———-|——–(11)-|———(11)-|
R||————-|————–|————-|————–|

G||————-|————–|————-|————–|
U||————-|————–|————-|————–|
I||————-|————–|————-|————–|
T||–2———-|————–|————-|————–|
A||–0———-|–7———–|———(7)-|———-(7)-|
R||————-|–5———–|———(5)-|———-(5)-|

1st

G|————-|—————|————-|————–|
U|————-|—————|————-|————–|
I|————-|—————|————-|————–|
T|–7———-|—————|————-|————–|
A|—–9—-9–|–9ho11po9–7–|———(7)-|———-(7)-|
R|————-|—————|————-|————–|

G|————-|—————|————-|————–|
U|————-|—————|————-|————–|
I|————-|—————|————-|————–|
T|–3———-|—————|————-|————–|
A|—–5—5—|–5-ho7po5–3–|———(3)-|———-(3)-|
R|————-|—————|————-|————–|

1st

G|————-|—————|————-|————–|
U|————-|—————|————-|————–|
I|————-|—————|————-|————–|
T|–11———|—————|————-|————–|
A|–0———-|–11———–|——–(11)-|———(11)-|
R|————-|—————|————-|————–|

G|————-|—————|————-|————–|
U|————-|—————|————-|————–|
I|————-|—————|————-|————–|
T|–2———-|—————|————-|————–|
A|–0———-|–7————|———(7)-|———-(7)-|
R|————-|–5————|———(5)-|———-(5)-|

1st

G|————-|—————|————-|————–||
U|————-|—————|————-|————–||
I|————-|—————|————-|————-||
T|–7———-|—————|–4———-|————-||
A|—–9—9—|–9ho11po9–7–|—–6—-6–|–6ho7po6–4–||
R|————-|—————|————-|————–||

G|————-|—————|————-|————–||
U|————-|—————|————-|————–||
I|————-|—————|————-|————-||
T|–3———-|—————|————-|————-||
A|—–5—-5–|–5-ho7po5–3–|–5–2—-2–|–2ho4po2–0–||
R|————-|—————|————-|————–||

[Repeat MidSection]

[Verse III]
1st

G||————————|———————–|
U||—12–12–12———–|–12–12–12———–|
I||–10–10–10———–|–10–10–10———–|
T||———————–|———————–|
A||—————2–2–2–|————–2–2–2–|
R||—————0–0–0–|————–0–0–0–|

G||————————|———————–|
U||————————|———————–|
I||–10–10–10———–|–10–10–10———–|
T||–9—9—9————|–9—9—9————|
A||—————2–2–2–|————–2–2–2–|
R||—————0–0–0–|————–0–0–0–|

1st

G|————13–13–13–|————13–13–13–|
U|————12–12–12–|————12–12–12–|
I|————————|————————|
T|————————|————————|
A|–2–2–2—————|–2–2–2—————|
R|–0–0–0—————|–0–0–0—————|

G|————————|————————|
U|————————|————————|
I|————16–16–16–|———–16–16–16–|
T|————15–15–15–|———–15–15–15–|
A|–2–2–2—————|–2–2–2—————|
R|–0–0–0—————|–0–0–0—————|

1st

G|————————|————————|
U|—12–12–12———–|–12–12–12————|
I|–10–10–10———–|–10–10–10————|
T|———————–|————————|
A|—————2–2–2–|—————2–2–2–|
R|—————0–0–0–|—————0–0–0–|

G|————————|————————|
U|————————|————————|
I|–10–10–10———–|–10–10–10————|
T|–9—9—9————|–9—9—9————-|
A|—————2–2–2–|—————2–2–2–|
R|—————0–0–0–|—————0–0–0–|

1st

G|———–15–15–15–|———–15–15–15—||
U|———–14–14–14–|———–14–14–14—||
I|———————–|———————–||
T|———————–|———————–||
A|–2–2–2————–|–2–2–2—————||
R|–0–0–0————–|–0–0–0—————||

G|———————–|————————||
U|———————–|————————||
I|———–18–18–18–|———–18–18–18–||
T|———–17–17–17–|———–17–17–17–||
A|–2–2–2————–|–2–2–2—————||
R|–0–0–0————–|–0–0–0—————||

[Repeat Intro]

[Repeat PreVerse]

||——————–|——————–|————–||
||——————–|——————–|————–||
||——————–|——————–|————–||
||——————–|————–4–2–|–4———–||
||–2–2–2–2–2–2–|–2–2–2–2–2–0–|–2———–||
||–0–0–0–0–0–0–|–0–0–0–0——–|————–||

To play the most songs, including Iron Tusk by Mastodon by ukulele, the most important basic ukulele chords to learn are C chord, D chord, G chord, and Em chord.
These set you up to play a many of songs, and each of them is easy to learn.