If you are searching for Endless Wave ukulele chords, you already come to the right site.
You can play versatile instrument Endless Wave using ukulele or guitar.
This song by Meat Puppets can also be played by that instruments.
=

Endless Wave chords has rhythm and included in Golden Lies (2000) album.
You can also find other musical genres, including jazz ukulele chords, country music ukulele chords, pop ukulele chords, world music ukulele chords, and rock ukulele chords here.

Endless Wave by Meat Puppets Ukulele Chords


#
#Endless Wave
#Written by Curt Kirkwood
#Tabbed by: Halvor Wold Norway
#E-mail: wold.halvor@organizer.net
#Album: Golden lies
#
#
#Verse:
#


-------------0-----------------------1------------|

#


-1---1--0-1-----1--0--1------1--0-1------1--0--1--|

#


-0-----------------------2------------------------|

#


-2-----------------------3------------------------|

#


-3-----------------------3------------------------|

#


-------------------------1------------------------|

#
#Then play around with these chords a little

Chorus:
It’s very hard to hear the exact chords,
but basically the progression is:
[G/B]
There is a little treble thingy:


----1-0---|
-1------1-|
----------|
----------|
----------|
----------|

Basically just play around with the e and B
strings on the first two frets.
That`s Endless wave….The song is really cool and relaxing
so you should download it!!!

To play the this songs, including Endless Wave by Meat Puppets by ukulele, the most crucial basic ukulele chords to learn are C chord, D chord, G chord, and Em chord.
These set you up to play a many of songs, and each of them is easy to master.

If you are searching for Leaves ukulele chords, you already come to the best place.
You can play versatile instrument Leaves using ukulele or guitar.
This song by Meat Puppets can also be played by that instruments.
=

Leaves chords has rhythm and included in Mirage (1987) album.
You can also find another musical genres, including jazz ukulele chords, country music ukulele chords, pop ukulele chords, world music ukulele chords, and rock ukulele chords here.

Leaves by Meat Puppets Ukulele Chords


A G F G (x2)

One afternoon as dusk was nearing
I saw something I thought worth hearing
A thing that’s been around so long
Now listen to my new year’s song

(Chorus) You can play the C and Bb’s as sus2 and pick every chord

Who ever made up the calendar was wrong
It’s new years all year long
Each year is a minute
Only full of the leaves in it

A G F G (x2)

Now Daddy said this to his son
I know for sure this can be done
We’ll cover up our tracks and then
Walk back the other way again

(Chorus)

A G F G (x4)

(C’s and Bb’s can be sus2)


One day in a forest clearing
I saw different things appearing
And now it’s been around so long
Now listen to my new years song

Pick the following Barre Chords
C Dsus2 F G (x4)

To play the most songs, including Leaves by Meat Puppets by ukulele, the most important basic ukulele chords to learn are C chord, D chord, G chord, and Em chord.
These set you up to play a many of songs, and each of them is easy to learn.

If you are looking for Sewn Together ukulele chords, you have come to the right site.
You can play versatile instrument Sewn Together using ukulele or guitar.
This song by Meat Puppets can also be played by that instruments.
=

Sewn Together chords has rhythm and included in Sewn Together (2009) album.
You can also find another musical style, including jazz ukulele chords, country music ukulele chords, pop ukulele chords, world music ukulele chords, and rock ukulele chords here.

Sewn Together by Meat Puppets Ukulele Chords


Patrick H. (Pat93)

Tunning: Standard
Chords: G , D and F (this F is an Power chord).

Verse:
Forget yourself, you only wanna be alone
You bought the shelf, you’re living like a dusty bone
Gas is high tonight and all the horses flown

Chorus:
And it’s all sewn together this time
And it’s all sewn together this time
( Tab from: http://www.guitartabs.cc/tabs/m/meat_puppets/sewn_together_crd.html )
((Than just go on with this chords. Its everytime the same.))

Suit yourself, you’re dressing for another time
Rotten bell is hanging from a dusty vine
Blue and silver shards of broken candle light

And it’s all sewn together this time
And it’s all sewn together this time

During Solo: G , D …/ Than F ,G , D (by 1:25)

Watch my fall, step on my head again
I just took all the rest of the medicine
I pay myself tonight so I can be my friend

And it’s all sewn together this time
And it’s all sewn together this time

Blue and silver shards of broken candle light
And it’s all sewn together this time
And it’s all sewn together this time
And it’s all sewn together this time
And it’s all sewn together this time

Play F , G , D til the song ends)

Enjoy my fist Tab (Chords) . 😉

To play the most songs, including Sewn Together by Meat Puppets by ukulele, the most important basic ukulele chords to learn are C chord, D chord, G chord, and Em chord.
These set you up to play a ton of songs, and each of them is easy to master.

If you are searching for Lake of Fire ukulele chords, you have come to the right place.
You can play versatile instrument Lake of Fire using ukulele or guitar.
This song by Meat Puppets can also be played by that instruments.
=

Lake of Fire chords has rhythm and included in Meat Puppets II (1984) album.
You can also get other musical style, including jazz ukulele chords, country music ukulele chords, pop ukulele chords, world music ukulele chords, and rock ukulele chords here.

Lake of Fire by Meat Puppets Ukulele Chords

#

#———————————-PLEASE NOTE———————————#

##This file is the author’s own work and represents their interpretation of the #
##song. You may only use this file for private study, scholarship, or research. #
#

#——————————————————————————##

#From: Steve Nicholson
#
#Lake of Fire
#by The Meat Puppets
#
#chorus:
Where do bad folks go when they die
They don’t go to heaven where the angels fly
They go to the lake of fire and fry
Won’t see ’em again ’til the fourth of July
[-] [-] Now I knew a lady who came from Duluth
She got bit by a dog with a rabid tooth
She went to her grave just a little too soon
and flew away howlin’ on a yellow moon
-repeat chorus-
Now people howl and people moan
and look for a dry place to call their own
and try to find somewhere to rest their bones
for the angels and the devil fight to make ’em their own
-repeat chorus-
[–] Steve Nicholson, 74431.40@compuserve.com

To play the most songs, including Lake of Fire by Meat Puppets by ukulele, the most important basic ukulele chords to learn are C chord, D chord, G chord, and Em chord.
These set you up to play a a lot of songs, and each of them is easy to learn.

If you are searching for Push the Button ukulele chords, you already come to the best site.
You can play versatile instrument Push the Button using ukulele or guitar.
This song by Meat Puppets can also be played by that instruments.
=

Push the Button chords has rhythm and included in Golden Lies (2000) album.
You can also get other musical genres, including jazz ukulele chords, country music ukulele chords, pop ukulele chords, world music ukulele chords, and rock ukulele chords here.

Push the Button by Meat Puppets Ukulele Chords


Written by Curt Kirkwood
Tabbed by: Halvor Wold
Album: Golden lies
e-mail: wold.halvor@organizer.net

Intro:
Strum a ‘G’ Chord a lot
The 2nd guitar plays an ‘A’ on
the high ‘e’ string like so:
-5-5—|


-------|
-------|
-------|
-------|
-------|

Chorus:

The Chord structure here is:
(in case you wanted to know)

First Guitar:


---5-5-5-3-2---0-0-0-0----------------------------------------|
-----------------------3---2-----0-0-0--2-3---3-3-3-3-2---0---|
--------------------------------------------------------------|
--------------------------------------------------------------|
--------------------------------------------------------------|
--------------------------------------------------------------|

Second Guitar:


---2-2-2-0----------------------------------------------------|
-----------3---2-2-2-2-0-----0---0-0-0------------------------|
---------------------------2-0----------0---------------------|
-----------------------------0------------0---------------0---|
------------------------------------------------------2-------|
----------------------------------------------3-3-3-3---------|

Note:This second guitar is slightly adlibbed. This is what is
generally played.

Verse:


----------------------------------------------------------|
----------------------------------------------------------|
-2----x-2------5----x-5---------------------2----x-2------|
-2----x-2------5----x-5------5----x-5-------2----x-2------|
-0----x-0------3----x-3------5----x-5-------0----x-0------|
-----------------------------3----x-5---------------------|

There are a few parts where the guitar follows
the bass like this:


----------------------------------------------------------|
----------------------------------------------------------|
-2---------2-4-5-------4-2-4----------------2-------------|
-2---------2-4-5-------4-2-4-5--------------2-------------|
-0---------0-2-3-------2-0-2-5--------------0-------------|
-----------------------------3----------------------------|

Bridge:
Strum a ‘G’ chord.

To play the this songs, including Push the Button by Meat Puppets by ukulele, the most crucial basic ukulele chords to learn are C chord, D chord, G chord, and Em chord.
These set you up to play a many of songs, and each of them is easy to learn.

If you are looking for Climbing ukulele chords, you already come to the best place.
You can play versatile instrument Climbing using ukulele or guitar.
This song by Meat Puppets can also be played by that instruments.
=

Climbing chords has rhythm and included in Meat Puppets II (1984) album.
You can also find other musical style, including jazz ukulele chords, country music ukulele chords, pop ukulele chords, world music ukulele chords, and rock ukulele chords here.

Climbing by Meat Puppets Ukulele Chords


-------------------------------------------------------------------------------

climbing – meat puppets


-------------------------------------------------------------------------------

Tabbed by: joshua st.louis
E-mail: pukeandpiss12@yahoo.com

Tuning: standard

climb, climb, i always climb
out of bed in the morning and on a mountain made of sand
and i know this doesn’t rhyme
but the clutter on the table is getting out of hand

i know you tried to see me through
but, honey, i’m still having trouble
finding out what’s you

time, time, it’s so sublime
how they say it’s non-existent but it’s playing with my mind
phone calls don’t cost a dime
in the caverns of our feelings where the sun will never shine

i know you tried to see me through
but, honey, i’m still having trouble
finding out what’s you

mine, mine, which things are mine
oh, i thought i saw a few before i found out i was blind
i think i see a sign
and it’s saying where to go and when i get there what i”ll find

i know you tried to see me through
but, honey, i’m still having trouble
finding out what’s you

SOLO

INTRO:


e|-----------------|
b|-4/6-4-2---------|
G|-5/7-5-3---------|
D|-----------------|
A|-----------------|
E|-----------------|
e|---------------------------------------------------------------------------|
b|---------------------------------------------------------------------------|
G|---------------------------------------------------------------------------|
D|---------------------------------------------------------------------------|
A|-9h10-12-------------------------------------------------------------------|
E|---------10----------------------------------------------------------------|

VERSE (these are several different riffs cris kirkwood plays over the course of the song,
in no particular order)


e|---------------------------------------------------------------------------|
b|---------------------------------------------------------------------------|
G|----------------------4----------------------------------------------------|
D|-------2----2-5---4-7-----5-3-2-0------------------------------------------|
A|---2-5----3-----5------------------------2-3-3--5-5h7p5--------------------|
E|-3----------------------------------3-3------------------3-3---------------|
e|---------------------------------------------------------------------------|
b|---------------------------------------------------------------------------|
G|---------------------------------------------------------------------------|
D|------------------5-5---------------------5-5------------------------------|
A|-----2-3-3--5-5-7------------3-3--5-4-5-7----------------------------------|
E|-3-3-------------------3-3/2-----------------------------------------------|
e|----------------------------------------------------------------------------------------|
b|----------------------------------------------------------------------------------------|
G|----------------------------------------------------------------------------------------|
D|-5-3-2-0----------4------------------------------------------------------------5-3-2-0--|
A|---------3-3--5-5--5-------------2-3--2-3-5-5/7/5-------0/2--3-2-3-5--5-7-5-4-----------|
E|---------------------3-3----3-3-------------------3---3---------------------------------|

CHORUS


e|-------------------------------------------------------------------------|
b|-------------------------------------------------------------------------|
G|-------------------------------------------------------------------------|
D|-----------------------0-0-0---------3-3-3--5-5-5---------------4-2-0----|
A|-3-3-3-3-3--0-00-00-00-----------------------------2-2-2-2-2-2--------4--|
E|------------------------------1-1-1--------------------------------------|

SOLO: ( the lead seems to be based on this scale)


e|-10-8-7--------------------------------------------|
b|---------10-8-7------------------------------------|
G|-----------------9-7-------------------------------|
D|----------------------10-9-7-----------------------|
A|------------------------------10-9-7---------------|
E|--------------------------------------10-8-7-------|

| / slide up
| slide down
| H hammer-on
| p pull-off
| ~ vibrato
| + harmonic
| x Mute note

To play the most songs, including Climbing by Meat Puppets by ukulele, the most important basic ukulele chords to learn are C chord, D chord, G chord, and Em chord.
These set you up to play a ton of songs, and each of them is easy to master.

If you are looking for Enemy Love Song ukulele chords, you’ve come to the right site.
You can play versatile instrument Enemy Love Song using ukulele or guitar.
This song by Meat Puppets can also be played by that instruments.
=

Enemy Love Song chords has rhythm and included in Rise to Your Knees (2007) album.
You can also find other musical style, including jazz ukulele chords, country music ukulele chords, pop ukulele chords, world music ukulele chords, and rock ukulele chords here.

Enemy Love Song by Meat Puppets Ukulele Chords


I think is very accurate … I love this song!! from “Rise to Your Knees” … for
the way i play the song which is doing the exact same vocals this sounds about
right and also the position of the chords… you might do it in a different way,
but def these are the chords.

I——- thought that it was over

The—–se seem to be the days of wine
You’ve done as you please
We’re all so relieved

I wanna be a rainbow
Laid out across the stormy skies
You’ve done as you please
Now down on your knees

There’s a shudder in the evening wind
I can feel it in my ear again
Like a rabbit and a carrot fit [C9(7)]away
There’s a shudder in the evening wind
I can feel it in my ear again
Like a rabbit and a carrot fit away

You turned into a monster
I hope your new life turns alright
You’ve done as you please
We’re all so relieved

There’s a shudder in the evening wind
I can feel it in my ear again
Like a rabbit and a carrot fit away

There’s a shudder in the evening wind
I can feel it in my ear again
Like a rabbit and a carrot fit away

No is a better number
I’ll do a better job for free
You’ve done as you please
Now down on your knees

There’s a shudder in the evening wind
I can feel it in my ear again
Like a rabbit and a carrot fit away

There’s a shudder in the evening wind
I can feel it in my ear again
Like a rabbit and a carrot fit away

There’s a shudder in the evening wind
I can feel it in my ear again
Like a rabbit and a carrot fit away

There’s a shudder in the evening wind
I can feel it in my ear again
Like a rabbit and a carrot fit away

To play the this songs, including Enemy Love Song by Meat Puppets by ukulele, the most important basic ukulele chords to learn are C chord, D chord, G chord, and Em chord.
These set you up to play a a lot of songs, and each of them is easy to learn.