If you are searching for Whenever I Call You Friend ukulele chords, you’ve visit to the right site.
You can play versatile instrument Whenever I Call You Friend using ukulele or guitar.
This song by Michael Johnson can also be played by that instruments.
=

Whenever I Call You Friend chords has rhythm and included in Then & Now (1997) album.
You can also find other musical style, including jazz ukulele chords, country music ukulele chords, pop ukulele chords, world music ukulele chords, and rock ukulele chords here.

Whenever I Call You Friend by Michael Johnson Ukulele Chords


Whenever I Call You “Friend”
Michael Johnson and Alison Krauss

Whenever I call you ”friend”, I begin to think I understand

Anthing we [D/F#]are, [F#/A#]you and I have always been ever and ever

I see myself within your eyes, and that’s all I need to show me why
Everything I [D/F#]do, [F#/A#]always takes me home to you ever and ever

[(B)]Now I know my life has [C#/B]given me more than [F#/A#]memories

Day [Bb/D]by day, we can see in every [Cm+]moment there’s a reason to carry on[-]

Refrain:

Sweet love [G/B]showin’ us a heavenly light

I’ve never [G/B]seen such a beautiful sight

See the love [G/B]flowin’ on us every night

I know for[G/B]ever we’ll be doin’ it right

Interlude: C – G/B – Am7 – G (3x) then C – G/B – Am (pause)

Whenever I call you ”friend”, I believe I’ve come to understand
Everywhere we [D/F#]are, [F#/A#]you and I were meant to be ever and ever[-]
[(G)]I think about the times to come, knowing I will be the lucky one
Ever our [G/B]love will last, I always wanna call you ”friend”

(Repeat Refrain 2x, ending with Am7 and “doin’ it (2x)” the second time)

(Repeat Refrain transposed to G – D/F# – Em7 – D)

(Do first stanza chords until fade)

[—]
Dedicated to Stay 😀

Ron
ronyu02 (at) yahoo (dot) com

To play the this songs, including Whenever I Call You Friend by Michael Johnson by ukulele, the most important basic ukulele chords to learn are C chord, D chord, G chord, and Em chord.
These set you up to play a many of songs, and each of them is easy to learn.

If you are looking for I’ll Always Love You ukulele chords, you’ve come to the right site.
You can play versatile instrument I’ll Always Love You using ukulele or guitar.
This song by Michael Johnson can also be played by that instruments.
=

I’ll Always Love You chords has rhythm and included in Dialogue (1979) album.
You can also find another musical style, including jazz ukulele chords, country music ukulele chords, pop ukulele chords, world music ukulele chords, and rock ukulele chords here.

I’ll Always Love You by Michael Johnson Ukulele Chords


ILL ALWAYS LOVE YOU (acoustic version)
MICHAEL JOHNSON
tabbed by vhingster
leecarino@yahoo.com

intro chord patern:
A-F#m/C-D-Bm7 (2X)

[F#m/C]


e-|-------------2----------------|
B-|------5------------3-----3----|
G-|-----2-----2------2-----2-----| this will be repeated twice..
D-|----2-----4------4-----4------|
A-|---0-----3------5-----2-------|
E-|------------------------------|

then comes the verse part.

standing [F#m/C]by my window A(1)


Bm E A(1) -|-------------------|
listening for your call -|-----------2h3h2---|
-|--------2h4--------|
-|-----2-------------|
-|--0----------------|
-|-------------------|

DM7 E E/D(2) D A(1)
seems i really miss you afterall

E/D(2) D A(1)
^ ^


-|-----4-(strum upward--)---3-(strum upward)-----------------------|
-|-----5--------------------2-----------------------------2h3h2----|
-|---4----------------------3-------------------------2h4----------|
-|--0---------------------0--------------------------2-------------|
-|-------------------------------------------------0---------------|
-|-----------------------------------------------------------------|

time wont let me, decide thoughts to mysel[A7(sus)]f..
i just want to let you know
i wished i never let you go..

CHORUS

and ill always love you

E D ^ A ^ F#m E


-|-------0-------------2--------0------------------4--------|
-|----------0----------3--------2-----------------5-5-5-----|
-|------------1------2----------2----------------4---4------|
-|------------------0---------2--------4s6-7----6-----------|
-|--2------------------------0-------4---------7------------|
-|-0--------------------------------2-----------------------|

deep inside this heart of mine i do………love you

and ill always need you

E Faug7 F#m7 D Bm E


-|---0-------------------------4----------5-4--2-----2------0---|
-|------0----0--------3--------3----------------3-----3------0--|
-|--------------1--------4-----4-----------------2--------------| do intro
-|---------2--------3----------3---------------0----4-----------| chords
-|--2-----------------------------------4----------2------------| pattern
-|-0----------------------------------2--------------------0----|

and if you ever change your mind i still……i will….love you

intro chords pattern (twice)

do same chords on first verse on verse 2..

then repeat chorus..

just listen to the acoustic version and try to focus on the
plucking pattern done on each lyrics.
i didnt put the refrain part on this one, im tired and i already forgot
the chords..just try to look it up on the other tabs guys..

hope you guys liked this one..

i actually serenade a girl with this song and guess what’
im married with her now!!

To play the this songs, including I’ll Always Love You by Michael Johnson by ukulele, the most crucial basic ukulele chords to learn are C chord, D chord, G chord, and Em chord.
These set you up to play a ton of songs, and each of them is easy to master.

If you are searching for I Will Whisper Your Name ukulele chords, you have come to the right place.
You can play versatile instrument I Will Whisper Your Name using ukulele or guitar.
This song by Michael Johnson can also be played by that instruments.
=

I Will Whisper Your Name chords has rhythm and included in That’s That album.
You can also find other musical style, including jazz ukulele chords, country music ukulele chords, pop ukulele chords, world music ukulele chords, and rock ukulele chords here.

I Will Whisper Your Name by Michael Johnson Ukulele Chords


Michael Johnson – I Will Whisper Your Name

Capo 1

Intro

–0——————-4———————–
—4——2-0—–0—5-4—–2-0——0——
—-4—-2——-1——-4—2——–1——-
——4s2——-4———4s2——–4——–
—————2——————–2———
————–0——————–0———-

Tonight I am thankful ’cause tomorrow begins
A lifetime together and two hearts will win
I have loved you as surely as love has no shame
For as long as you’re listening, I’ll whisper your name

Chorus
I will whisper your name when you’re wounded and caught
Or when love beats so loudly, a whisper is lost
And if I made the rules and if time was the game
I would promise forever to whisper your name

Well if you strike a match and set the whole world in flame
And they used up the oceans and still prayed for rain
When they cry for the guilty, I’ll take the blame
And when no one is listening, I’ll whisper your name

Chorus

Instrumental
[-] [-] [-]
Chorus

To play the this songs, including I Will Whisper Your Name by Michael Johnson by ukulele, the most important basic ukulele chords to learn are C chord, D chord, G chord, and Em chord.
These set you up to play a ton of songs, and each of them is easy to master.

If you are searching for This Night Won’t Last Forever ukulele chords, you have visit to the right place.
You can play versatile instrument This Night Won’t Last Forever using ukulele or guitar.
This song by Michael Johnson can also be played by that instruments.
=

This Night Won’t Last Forever chords has rhythm and included in Then & Now (1997) album.
You can also find another musical genres, including jazz ukulele chords, country music ukulele chords, pop ukulele chords, world music ukulele chords, and rock ukulele chords here.

This Night Won’t Last Forever by Michael Johnson Ukulele Chords


I KNOW THIS NIGHT WONT LAST FOREVER ? Michael Johnson

VERSE 1
Everybody likes a celebration
Happy music and conversation
Em A D F#Sus F#
I’d be lying if I said I didn’t have the blues
In the corner there’s a couple dancing
From the kitchen I can hear them laughing
Oh I wish I was celebrating too

CHORUS
I know this night won’t last forever
I know the sun is gonna shine sometime
I need some hope for a bright tomorrow
To show this heart is gonna mend just fine

VERSE 2
So pardon me for my disposition
I wish I didn’t have to sit and listen
Em A D F#Sus F#
Their playing the same old songs on the stereo
She’s been lying since the day I met her
I be better off to just forget her
Oh I would rather be lonesome all alone

BRIDGE
Such a ridiculous situation
Pretending there’s nothing wrong
She’s coming on with the invitation
Em A Bb (Key Change)
I wonder who is taking her home

CHORUS – ( KEY CHANGE)
I know this night won’t last forever
I know the sun is gonna shine sometime
I need some hope for a bright tomorrow
To show this heart is gonna mend just fine

To play the most songs, including This Night Won’t Last Forever by Michael Johnson by ukulele, the most crucial basic ukulele chords to learn are C chord, D chord, G chord, and Em chord.
These set you up to play a a lot of songs, and each of them is easy to master.

If you are looking for Bluer Than Blue ukulele chords, you have visit to the right place.
You can play versatile instrument Bluer Than Blue using ukulele or guitar.
This song by Michael Johnson can also be played by that instruments.
=

Bluer Than Blue chords has rhythm and included in Then & Now (1997) album.
You can also get another musical genres, including jazz ukulele chords, country music ukulele chords, pop ukulele chords, world music ukulele chords, and rock ukulele chords here.

Bluer Than Blue by Michael Johnson Ukulele Chords

Performed by Michael Johnson
Tabbed by Baddguitar

Riff#1 Riff#2 Riff#3 R#4


|--0---3-2-0-2---|--0----0-2---|--3----------3---|--0-----------|
|--1-------------|--1--3-------|--0----------0---|--0-----------|
|--2-------------|--2----------|--0----------0---|--0-------0---|
|--2-------------|--2----------|--0------0-2-3---|--2---2h4-----|
|--0-------------|--0----------|--2--------------|--2-----------|
|----------------|-------------|--3-----3--------|--0-----------|

Chorus Riff


|--3---------------2---------------| Some Chords: G7/F: xx3003
|--0---------------0---------------| B7/D#: xx1202
|--0---------------0---------------| A/C#: x4222x
|--0------0h2--0---0------0h2--0---| C/D: xx0010
|--2---------------2---------------|
|--3---------------3---------------|
------------------------------------------------------------------

Intro:


|--0--3--5--3--2--5--7----|-3--------3-5-7--5--3--2--|
|--1-----2-----3-----4--7-|-5------------------------|
|--0-----2-----2-----4----|-4--------4-5-7--5--4--2--|
|--2-----2-----0-----4----|--------------------------|
|--3-----0----------------|--------------------------|
|-------------------------|-0---0-0------------------|


|--0--3--5--3--2--5--7--5-|-0--|
|--1-----2-----3-----4----|-0--|
|--0-----2-----2-----4----|-1--|
|--2-----2-----0-----4----|-2--|
|--3----------------------|-2--|
|-------------------------|-0--|


E E7 A Am (Riff1)
After you go, I can catch up on my reading
E E7 A Am (Riff2)
After you go, I’ll have a lot more time for sleeping
G (Riff#3) G7/F Cmaj7 C
And when you’re gone looks like things are gonna be a lot easier
Bm7 Em (R#4) Am7 Bm7 C D
Life will be a breeze, you know. I really should be glad


G (Chorus Riff) Gmaj7
But I’m bluer than blue. Sadder than sad
You’re the only light this empty room has ever had
Life without y[B7/D#]ou is gonna be…
Bluer than blue[A/C#][B7/D#]


E E7 A Am (Riff1)
After you go, I’ll have a lot more room in my closet
E E7 A Am (Riff2)
After you go, I’ll stay out all night long if I feel like it
G (Riff#3) G7/F Cmaj7 C
And when you’re gone I can run through the house screamin’
And no one will ever hear me. I really should be glad.


G (Chorus Riff) Gmaj7
But I’m bluer than blue. Sadder than sad
You’re the only light this empty room has ever had
Life without y[B7/D#]ou is gonna be…
Bluer than …


I don’t have to miss no TV shows I can start my whole life over
Change the numbers on my telephone But the nights will [A/C#]sure be colder.


Dsus4 G (Chorus Riff) Gmaj7
But I’m bluer than blue. Sadder than sad
You’re the only light this empty room has ever had
Life without y[B7/D#]ou is gonna be…
Bluer than blue [A/C#] Bluer [B7/D#]than blue

[C/D]Bluer than blue

To play the this songs, including Bluer Than Blue by Michael Johnson by ukulele, the most important basic ukulele chords to learn are C chord, D chord, G chord, and Em chord.
These set you up to play a a lot of songs, and each of them is easy to master.

If you are looking for Bluer Than Blue ukulele chords, you’ve visit to the right place.
You can play versatile instrument Bluer Than Blue using ukulele or guitar.
This song by Michael Johnson can also be played by that instruments.
=

Bluer Than Blue chords has rhythm and included in Then & Now (1997) album.
You can also find other musical style, including jazz ukulele chords, country music ukulele chords, pop ukulele chords, world music ukulele chords, and rock ukulele chords here.

Bluer Than Blue by Michael Johnson Ukulele Chords


Performed by Michael Johnson
Tabbed by Baddguitar

Riff#1 Riff#2 Riff#3 R#4


|--0---3-2-0-2---|--0----0-2---|--3----------3---|--0-----------|
|--1-------------|--1--3-------|--0----------0---|--0-----------|
|--2-------------|--2----------|--0----------0---|--0-------0---|
|--2-------------|--2----------|--0------0-2-3---|--2---2h4-----|
|--0-------------|--0----------|--2--------------|--2-----------|
|----------------|-------------|--3-----3--------|--0-----------|

Chorus Riff


|--3---------------2---------------| Some Chords: G7/F: xx3003
|--0---------------0---------------| B7/D#: xx1202
|--0---------------0---------------| A/C#: x4222x
|--0------0h2--0---0------0h2--0---| C/D: xx0010
|--2---------------2---------------|
|--3---------------3---------------|
------------------------------------------------------------------

Intro:


|--0--3--5--3--2--5--7----|-3--------3-5-7--5--3--2--|
|--1-----2-----3-----4--7-|-5------------------------|
|--0-----2-----2-----4----|-4--------4-5-7--5--4--2--|
|--2-----2-----0-----4----|--------------------------|
|--3-----0----------------|--------------------------|
|-------------------------|-0---0-0------------------|


|--0--3--5--3--2--5--7--5-|-0--|
|--1-----2-----3-----4----|-0--|
|--0-----2-----2-----4----|-1--|
|--2-----2-----0-----4----|-2--|
|--3----------------------|-2--|
|-------------------------|-0--|


E E7 A Am (Riff1)
After you go, I can catch up on my reading
E E7 A Am (Riff2)
After you go, I’ll have a lot more time for sleeping
G (Riff#3) G7/F Cmaj7 C
And when you’re gone looks like things are gonna be a lot easier
Bm7 Em (R#4) Am7 Bm7 C D
Life will be a breeze, you know. I really should be glad


G (Chorus Riff) Gmaj7
But I’m bluer than blue. Sadder than sad
You’re the only light this empty room has ever had
Life without y[B7/D#]ou is gonna be…
Bluer than blue[A/C#][B7/D#]


E E7 A Am (Riff1)
After you go, I’ll have a lot more room in my closet
E E7 A Am (Riff2)
After you go, I’ll stay out all night long if I feel like it
G (Riff#3) G7/F Cmaj7 C
And when you’re gone I can run through the house screamin’
And no one will ever hear me. I really should be glad.


G (Chorus Riff) Gmaj7
But I’m bluer than blue. Sadder than sad
You’re the only light this empty room has ever had
Life without y[B7/D#]ou is gonna be…
Bluer than …


I don’t have to miss no TV shows I can start my whole life over
Change the numbers on my telephone But the nights will [A/C#]sure be colder.


Dsus4 G (Chorus Riff) Gmaj7
But I’m bluer than blue. Sadder than sad
You’re the only light this empty room has ever had
Life without y[B7/D#]ou is gonna be…
Bluer than blue [A/C#] Bluer [B7/D#]than blue

[C/D]Bluer than blue

To play the this songs, including Bluer Than Blue by Michael Johnson by ukulele, the most important basic ukulele chords to learn are C chord, D chord, G chord, and Em chord.
These set you up to play a ton of songs, and each of them is easy to master.

If you are searching for Bluer Than Blue ukulele chords, you have come to the best site.
You can play versatile instrument Bluer Than Blue using ukulele or guitar.
This song by Michael Johnson can also be played by that instruments.
=

Bluer Than Blue chords has rhythm and included in Then & Now (1997) album.
You can also find other musical genres, including jazz ukulele chords, country music ukulele chords, pop ukulele chords, world music ukulele chords, and rock ukulele chords here.

Bluer Than Blue by Michael Johnson Ukulele Chords


Performed by Michael Johnson
Tabbed by Baddguitar

Riff#1 Riff#2 Riff#3 R#4


|--0---3-2-0-2---|--0----0-2---|--3----------3---|--0-----------|
|--1-------------|--1--3-------|--0----------0---|--0-----------|
|--2-------------|--2----------|--0----------0---|--0-------0---|
|--2-------------|--2----------|--0------0-2-3---|--2---2h4-----|
|--0-------------|--0----------|--2--------------|--2-----------|
|----------------|-------------|--3-----3--------|--0-----------|

Chorus Riff


|--3---------------2---------------| Some Chords: G7/F: xx3003
|--0---------------0---------------| B7/D#: xx1202
|--0---------------0---------------| A/C#: x4222x
|--0------0h2--0---0------0h2--0---| C/D: xx0010
|--2---------------2---------------|
|--3---------------3---------------|
------------------------------------------------------------------

Intro:


|--0--3--5--3--2--5--7----|-3--------3-5-7--5--3--2--|
|--1-----2-----3-----4--7-|-5------------------------|
|--0-----2-----2-----4----|-4--------4-5-7--5--4--2--|
|--2-----2-----0-----4----|--------------------------|
|--3-----0----------------|--------------------------|
|-------------------------|-0---0-0------------------|


|--0--3--5--3--2--5--7--5-|-0--|
|--1-----2-----3-----4----|-0--|
|--0-----2-----2-----4----|-1--|
|--2-----2-----0-----4----|-2--|
|--3----------------------|-2--|
|-------------------------|-0--|


E E7 A Am (Riff1)
After you go, I can catch up on my reading
E E7 A Am (Riff2)
After you go, I’ll have a lot more time for sleeping
G (Riff#3) G7/F Cmaj7 C
And when you’re gone looks like things are gonna be a lot easier
Bm7 Em (R#4) Am7 Bm7 C D
Life will be a breeze, you know. I really should be glad


G (Chorus Riff) Gmaj7
But I’m bluer than blue. Sadder than sad
You’re the only light this empty room has ever had
Life without y[B7/D#]ou is gonna be…
Bluer than blue[A/C#][B7/D#]


E E7 A Am (Riff1)
After you go, I’ll have a lot more room in my closet
E E7 A Am (Riff2)
After you go, I’ll stay out all night long if I feel like it
G (Riff#3) G7/F Cmaj7 C
And when you’re gone I can run through the house screamin’
And no one will ever hear me. I really should be glad.


G (Chorus Riff) Gmaj7
But I’m bluer than blue. Sadder than sad
You’re the only light this empty room has ever had
Life without y[B7/D#]ou is gonna be…
Bluer than …


I don’t have to miss no TV shows I can start my whole life over
Change the numbers on my telephone But the nights will [A/C#]sure be colder.


Dsus4 G (Chorus Riff) Gmaj7
But I’m bluer than blue. Sadder than sad
You’re the only light this empty room has ever had
Life without y[B7/D#]ou is gonna be…
Bluer than blue [A/C#] Bluer [B7/D#]than blue

[C/D]Bluer than blue

To play the this songs, including Bluer Than Blue by Michael Johnson by ukulele, the most important basic ukulele chords to learn are C chord, D chord, G chord, and Em chord.
These set you up to play a many of songs, and each of them is easy to master.

If you are looking for Bluer Than Blue ukulele chords, you already come to the best site.
You can play versatile instrument Bluer Than Blue using ukulele or guitar.
This song by Michael Johnson can also be played by that instruments.
=

Bluer Than Blue chords has rhythm and included in Then & Now (1997) album.
You can also get other musical style, including jazz ukulele chords, country music ukulele chords, pop ukulele chords, world music ukulele chords, and rock ukulele chords here.

Bluer Than Blue by Michael Johnson Ukulele Chords

Performed by Michael Johnson
Tabbed by Baddguitar

Riff#1 Riff#2 Riff#3 R#4


|--0---3-2-0-2---|--0----0-2---|--3----------3---|--0-----------|
|--1-------------|--1--3-------|--0----------0---|--0-----------|
|--2-------------|--2----------|--0----------0---|--0-------0---|
|--2-------------|--2----------|--0------0-2-3---|--2---2h4-----|
|--0-------------|--0----------|--2--------------|--2-----------|
|----------------|-------------|--3-----3--------|--0-----------|

Chorus Riff


|--3---------------2---------------| Some Chords: G7/F: xx3003
|--0---------------0---------------| B7/D#: xx1202
|--0---------------0---------------| A/C#: x4222x
|--0------0h2--0---0------0h2--0---| C/D: xx0010
|--2---------------2---------------|
|--3---------------3---------------|
------------------------------------------------------------------

Intro:


|--0--3--5--3--2--5--7----|-3--------3-5-7--5--3--2--|
|--1-----2-----3-----4--7-|-5------------------------|
|--0-----2-----2-----4----|-4--------4-5-7--5--4--2--|
|--2-----2-----0-----4----|--------------------------|
|--3-----0----------------|--------------------------|
|-------------------------|-0---0-0------------------|


|--0--3--5--3--2--5--7--5-|-0--|
|--1-----2-----3-----4----|-0--|
|--0-----2-----2-----4----|-1--|
|--2-----2-----0-----4----|-2--|
|--3----------------------|-2--|
|-------------------------|-0--|


E E7 A Am (Riff1)
After you go, I can catch up on my reading
E E7 A Am (Riff2)
After you go, I’ll have a lot more time for sleeping
G (Riff#3) G7/F Cmaj7 C
And when you’re gone looks like things are gonna be a lot easier
Bm7 Em (R#4) Am7 Bm7 C D
Life will be a breeze, you know. I really should be glad


G (Chorus Riff) Gmaj7
But I’m bluer than blue. Sadder than sad
You’re the only light this empty room has ever had
Life without y[B7/D#]ou is gonna be…
Bluer than blue[A/C#][B7/D#]


E E7 A Am (Riff1)
After you go, I’ll have a lot more room in my closet
E E7 A Am (Riff2)
After you go, I’ll stay out all night long if I feel like it
G (Riff#3) G7/F Cmaj7 C
And when you’re gone I can run through the house screamin’
And no one will ever hear me. I really should be glad.


G (Chorus Riff) Gmaj7
But I’m bluer than blue. Sadder than sad
You’re the only light this empty room has ever had
Life without y[B7/D#]ou is gonna be…
Bluer than …


I don’t have to miss no TV shows I can start my whole life over
Change the numbers on my telephone But the nights will [A/C#]sure be colder.


Dsus4 G (Chorus Riff) Gmaj7
But I’m bluer than blue. Sadder than sad
You’re the only light this empty room has ever had
Life without y[B7/D#]ou is gonna be…
Bluer than blue [A/C#] Bluer [B7/D#]than blue

[C/D]Bluer than blue

To play the most songs, including Bluer Than Blue by Michael Johnson by ukulele, the most crucial basic ukulele chords to learn are C chord, D chord, G chord, and Em chord.
These set you up to play a a lot of songs, and each of them is easy to learn.

If you are looking for I Will Whisper Your Name ukulele chords, you already come to the right place.
You can play versatile instrument I Will Whisper Your Name using ukulele or guitar.
This song by Michael Johnson can also be played by that instruments.
=

I Will Whisper Your Name chords has rhythm and included in That’s That album.
You can also find another musical style, including jazz ukulele chords, country music ukulele chords, pop ukulele chords, world music ukulele chords, and rock ukulele chords here.

I Will Whisper Your Name by Michael Johnson Ukulele Chords


Michael Johnson – I Will Whisper Your Name

Capo 1

Intro

–0——————-4———————–
—4——2-0—–0—5-4—–2-0——0——
—-4—-2——-1——-4—2——–1——-
——4s2——-4———4s2——–4——–
—————2——————–2———
————–0——————–0———-

Tonight I am thankful ’cause tomorrow begins
A lifetime together and two hearts will win
I have loved you as surely as love has no shame
For as long as you’re listening, I’ll whisper your name

Chorus
I will whisper your name when you’re wounded and caught
Or when love beats so loudly, a whisper is lost
And if I made the rules and if time was the game
I would promise forever to whisper your name

Well if you strike a match and set the whole world in flame
And they used up the oceans and still prayed for rain
When they cry for the guilty, I’ll take the blame
And when no one is listening, I’ll whisper your name

Chorus

Instrumental
[-] [-] [-]
Chorus

To play the most songs, including I Will Whisper Your Name by Michael Johnson by ukulele, the most crucial basic ukulele chords to learn are C chord, D chord, G chord, and Em chord.
These set you up to play a ton of songs, and each of them is easy to learn.

If you are looking for I’ll Always Love You ukulele chords, you already visit to the right site.
You can play versatile instrument I’ll Always Love You using ukulele or guitar.
This song by Michael Johnson can also be played by that instruments.
=

I’ll Always Love You chords has rhythm and included in Dialogue (1979) album.
You can also get another musical style, including jazz ukulele chords, country music ukulele chords, pop ukulele chords, world music ukulele chords, and rock ukulele chords here.

I’ll Always Love You by Michael Johnson Ukulele Chords


ILL ALWAYS LOVE YOU (acoustic version)
MICHAEL JOHNSON
tabbed by vhingster
leecarino@yahoo.com

intro chord patern:
A-F#m/C-D-Bm7 (2X)

[F#m/C]


e-|-------------2----------------|
B-|------5------------3-----3----|
G-|-----2-----2------2-----2-----| this will be repeated twice..
D-|----2-----4------4-----4------|
A-|---0-----3------5-----2-------|
E-|------------------------------|

then comes the verse part.

standing [F#m/C]by my window A(1)


Bm E A(1) -|-------------------|
listening for your call -|-----------2h3h2---|
-|--------2h4--------|
-|-----2-------------|
-|--0----------------|
-|-------------------|

DM7 E E/D(2) D A(1)
seems i really miss you afterall

E/D(2) D A(1)
^ ^


-|-----4-(strum upward--)---3-(strum upward)-----------------------|
-|-----5--------------------2-----------------------------2h3h2----|
-|---4----------------------3-------------------------2h4----------|
-|--0---------------------0--------------------------2-------------|
-|-------------------------------------------------0---------------|
-|-----------------------------------------------------------------|

time wont let me, decide thoughts to mysel[A7(sus)]f..
i just want to let you know
i wished i never let you go..

CHORUS

and ill always love you

E D ^ A ^ F#m E


-|-------0-------------2--------0------------------4--------|
-|----------0----------3--------2-----------------5-5-5-----|
-|------------1------2----------2----------------4---4------|
-|------------------0---------2--------4s6-7----6-----------|
-|--2------------------------0-------4---------7------------|
-|-0--------------------------------2-----------------------|

deep inside this heart of mine i do………love you

and ill always need you

E Faug7 F#m7 D Bm E


-|---0-------------------------4----------5-4--2-----2------0---|
-|------0----0--------3--------3----------------3-----3------0--|
-|--------------1--------4-----4-----------------2--------------| do intro
-|---------2--------3----------3---------------0----4-----------| chords
-|--2-----------------------------------4----------2------------| pattern
-|-0----------------------------------2--------------------0----|

and if you ever change your mind i still……i will….love you

intro chords pattern (twice)

do same chords on first verse on verse 2..

then repeat chorus..

just listen to the acoustic version and try to focus on the
plucking pattern done on each lyrics.
i didnt put the refrain part on this one, im tired and i already forgot
the chords..just try to look it up on the other tabs guys..

hope you guys liked this one..

i actually serenade a girl with this song and guess what’
im married with her now!!

To play the this songs, including I’ll Always Love You by Michael Johnson by ukulele, the most crucial basic ukulele chords to learn are C chord, D chord, G chord, and Em chord.
These set you up to play a a lot of songs, and each of them is easy to master.

  • 1
  • 2