If you are looking for Talking Shit About a Pretty Sunset ukulele chords, you already come to the right site.
You can play versatile instrument Talking Shit About a Pretty Sunset using ukulele or guitar.
This song by Modest Mouse can also be played by that instruments.
=

Talking Shit About a Pretty Sunset chords has rhythm and included in Other Songs album.
You can also find another musical genres, including jazz ukulele chords, country music ukulele chords, pop ukulele chords, world music ukulele chords, and rock ukulele chords here.

Talking Shit About a Pretty Sunset by Modest Mouse Ukulele Chords


Talking Shit About a Pretty Sunset – Modest Mouse

Tabbed by: Jwrussert
Email: Jwrussert@gmail.com

Tuning: EADGBe

Intro:


e|----------------------|
B|----------------------|
G|-9----13----11----9---|
D|-9----13----11----9---|
A|-7----11----9-----7---|
E|----------------------|

It sounds best if you start the first E5 with a down stroke(toward the 1st string) and
second E5 with an up stroke (towards the 6th string). Or maybe I’m just crazy.

Continue to play this progression with a different strumming pattern throughout most of
song.

Solo (1:40 into the song):
Palm Mute


e|-------------------------------|
B|-12-9h10h12-12-9h10h12-12-10-9-|
G|-9--9-------9--9-------9--9--9-| x2
D|-------------------------------|
A|-------------------------------|
E|-------------------------------|

Play that twice and then this:
( Tab from: http://www.guitartabs.cc/tabs/m/modest_mouse/talking_shit_about_a_pretty_sunset_tab.html )
Harmonics Palm Mute Harmonics


e|-+12+12+-------+12+12+-----------------+12+12+-------+12+12+-----|
B|--------+12+12+--------+12+-12-9-10-7---------+12+12+------------|
G|-----------------------------------------------------------------| x2
D|------------------------------------------------------------12---|
A|-----------------------------------------------------------------|
E|-----------------------------------------------------------------|

Then repeat the entire solo one more time and then go back into the intro chords. After
them for a while start playing this next part which starts at about 2:43 minutes into
song.

Talking shit…


e|--------------------------------------------------|
B|----12----12----12----12---8---8------------------|
G|-12----12----11----11----9---9---------8h10-8h10--| repeat this a
D|---------------------------------11-11------------| bunch of times
A|--------------------------------------------------|
E|--------------------------------------------------|

Then Isaac Brock just repeats this a bunch of times and then goes off on a bunch of
things that are pretty much based on this.

| / slide up
| slide down
| h hammer-on
| p pull-off
| ~ vibrato
| + harmonic
| x Mute note

To play the this songs, including Talking Shit About a Pretty Sunset by Modest Mouse by ukulele, the most important basic ukulele chords to learn are C chord, D chord, G chord, and Em chord.
These set you up to play a a lot of songs, and each of them is easy to learn.

If you are searching for Talking Shit About a Pretty Sunset ukulele chords, you have come to the best site.
You can play versatile instrument Talking Shit About a Pretty Sunset using ukulele or guitar.
This song by Modest Mouse can also be played by that instruments.
=

Talking Shit About a Pretty Sunset chords has rhythm and included in Other Songs album.
You can also find other musical style, including jazz ukulele chords, country music ukulele chords, pop ukulele chords, world music ukulele chords, and rock ukulele chords here.

Talking Shit About a Pretty Sunset by Modest Mouse Ukulele Chords


Talking Shit About a Pretty Sunset – Modest Mouse

Tabbed by: Jwrussert
Email: Jwrussert@gmail.com

Tuning: EADGBe

Intro:


e|----------------------|
B|----------------------|
G|-9----13----11----9---|
D|-9----13----11----9---|
A|-7----11----9-----7---|
E|----------------------|

It sounds best if you start the first E5 with a down stroke(toward the 1st string) and
second E5 with an up stroke (towards the 6th string). Or maybe I’m just crazy.

Continue to play this progression with a different strumming pattern throughout most of
song.

Solo (1:40 into the song):
Palm Mute


e|-------------------------------|
B|-12-9h10h12-12-9h10h12-12-10-9-|
G|-9--9-------9--9-------9--9--9-| x2
D|-------------------------------|
A|-------------------------------|
E|-------------------------------|

Play that twice and then this:
( Tab from: http://www.guitartabs.cc/tabs/m/modest_mouse/talking_shit_about_a_pretty_sunset_tab.html )
Harmonics Palm Mute Harmonics


e|-+12+12+-------+12+12+-----------------+12+12+-------+12+12+-----|
B|--------+12+12+--------+12+-12-9-10-7---------+12+12+------------|
G|-----------------------------------------------------------------| x2
D|------------------------------------------------------------12---|
A|-----------------------------------------------------------------|
E|-----------------------------------------------------------------|

Then repeat the entire solo one more time and then go back into the intro chords. After
them for a while start playing this next part which starts at about 2:43 minutes into
song.

Talking shit…


e|--------------------------------------------------|
B|----12----12----12----12---8---8------------------|
G|-12----12----11----11----9---9---------8h10-8h10--| repeat this a
D|---------------------------------11-11------------| bunch of times
A|--------------------------------------------------|
E|--------------------------------------------------|

Then Isaac Brock just repeats this a bunch of times and then goes off on a bunch of
things that are pretty much based on this.

| / slide up
| slide down
| h hammer-on
| p pull-off
| ~ vibrato
| + harmonic
| x Mute note

To play the this songs, including Talking Shit About a Pretty Sunset by Modest Mouse by ukulele, the most important basic ukulele chords to learn are C chord, D chord, G chord, and Em chord.
These set you up to play a a lot of songs, and each of them is easy to master.

If you are searching for Dashboard ukulele chords, you already come to the best place.
You can play versatile instrument Dashboard using ukulele or guitar.
This song by Modest Mouse can also be played by that instruments.
=

Dashboard chords has rhythm and included in We Were Dead Before the Ship Even Sank (2007) album.
You can also find other musical style, including jazz ukulele chords, country music ukulele chords, pop ukulele chords, world music ukulele chords, and rock ukulele chords here.

Dashboard by Modest Mouse Ukulele Chords


A riff:

E|———————————–|
B|———————————–|
G|-9–9–9-9-9–7–9–9–9–9-9-9–7-|
D|———————————–|
A|———————————–|
E|———————————–|

Verse 1:

Well it would’ve been could’ve been worse than you would ever know
Oh the dashboard melted but we still have the radio
Oh it should’ve been could’ve been worse than you would ever know
Well you told me about nowhere, well it sounds like someplace I’d like to go

Verse 2:

Oh it could’ve been should’ve been worse than you would ever know
Well the windshield was broken but I love the fresh air ya know
Oh it would’ve been could’ve been worse than you would ever know oh!
Oh we talked about nothing which was more than I wanted you to know oh-oh-oh-oh, now here we go!

Chorus 1:

B B B F# F# E (x2)

e|——————–|
B|—-3——-3——-|
G|-4——–4—4–2–|
D|——-5————|
A|——————–|
E|——————–| (x2)

Verse 3:

Oh it would’ve been could’ve been worse than it had even gone
Well the car was on blocks, but I was already where I want
Why should we ever even ever really even get to know?
Oh if the world don’t like us it’ll shake us just like we were a co-o-o-old, now here we go!

B B B F# F# E (x2)

Chorus 2:

Well we scheme and we scheme but we always blow it
We’ve yet to crash but we still might as well enjoy it
Standing at a light switch to each east and west horizon
Every dawn you’re surprising and the evening was consoling saying, “See, it wasn’t quite as bad as”

Verse 4:

Well it would’ve been could’ve been worse than you would ever know
I was patiently erasing and recording the wrong episodes
After you had proved my point wrong it wasn’t like I’d let it go, oh-oh-oh, oh-oh-oh
I just wanted to catch the last laugh of this show

Verse 5:

Yeah it would’ve been could’ve been worse than you would ever know
Oh the dashboard melted, but we still have the radio
Hardwired to conceive so much wed have to stow even needs have needs tiny giants made o tinyr giants
Don’t wear eyelids so I don’t miss the last laugh of this sho-o-o-oh

Verse 6:

Oh we could’ve been should’ve been worse than you would ever know
Well you told me about nowhere well it sounds like someplace I’d like to go-oh-oh-oh-oh
B B B F# F# E (x2)
Now here we go!

Chorus 3:

Well we scheme and we scheme but we always blow it
We’ve yet to crash but we still might as well enjoy it
Standing at a light switch to each east and west horizon
Every dawn you’re surprising and the evening was consoling saying, “See, it wasn’t quite as bad as”

Coda:

Oh, it would’ve been could’ve been worse than you would ever know!

(end)

To play the this songs, including Dashboard by Modest Mouse by ukulele, the most important basic ukulele chords to learn are C chord, D chord, G chord, and Em chord.
These set you up to play a many of songs, and each of them is easy to master.

If you are searching for Sugar Boats ukulele chords, you’ve visit to the best place.
You can play versatile instrument Sugar Boats using ukulele or guitar.
This song by Modest Mouse can also be played by that instruments.
=

Sugar Boats chords has rhythm and included in Strangers to Ourselves (2015) album.
You can also get other musical style, including jazz ukulele chords, country music ukulele chords, pop ukulele chords, world music ukulele chords, and rock ukulele chords here.

Sugar Boats by Modest Mouse Ukulele Chords


e|————————|————————|
B|————————|————————|
G|——–7——-7h9p7—|——–7——-7h9p7—|
D|–7h9-9—–7h9——-9-|–7h9-9—–7h9——-9-|
A|————————|————————|
E|————————|————————|

e|————————|————————|
B|————————|————————|
G|————————|————————|
D|——–7——-7h9p7—|——–7——-7h9p7—|
A|–7h9-9—–7h9——-9-|–7h9-9—–7h9——-9-|
E|————————|————————|

This song is basically a polka beat with the chords alternating the root with the lower 4th.
Walk in between chord sections.

-When playing the Em alternate with the low B note
-When playing the D alternate with the low A note

Intro: Em D

Verse 1:

This rock of ours is just some big mistake
And we will never know just where we go or where we have came, from
These veins of mine are now some sort of fuse
And when they light up and my mind blows up, my heart is amused so
This heart of mine is just some sort of map
That doesn’t care at all or worry about, where the hell you’re at but you’re right there!

(riff)

Verse 2:

Well I’ve been meaning to dismiss you, yeah I have some plans to dismiss you
So stand by, by, by, by, bye-bye, wave bye sugar boats!
As soon as you paint every last grain of sand, as you soon as you paint every star,
In the sky, sky, sky, sky, sky, sky, wave bye sugar boats!
Well, I’m swatting at mosquitoes as they’re orbiting me
I’m orbiting the sun and this goes on and on and on, you see
This heart of mine is just some, some broke machine
And when it gets a-goin’ and it often gets goin’, it starts blowin’ steam, here we go again!

(riff)

Verse 3:

This rock of ours is just some big mistake
And we will never know just where we go, or where we have came, from
This watch of mine is like some sort of void
Cause when I look in and I shouldn’t look in I, I see it swallow my time, oh no there it goes!

(riff)

Verse 4:

I ain’t getting on no fast plane, hell, I ain’t getting on no stuffy train
Sugar boats on the Atlantic are fine, the sugar boats, they’re just fine
I’ll stand on the deck so you could see
I’ll stand on the deck you could wave bye, bye, bye, bye, bye, bye, bye, bye

bye, bye, bye, bye bye, bye, bye,
bye, bye, bye, bye bye, bye, bye,
bye, bye, bye, bye bye, bye, bye,
bye, bye, bye, bye bye, bye, bye……

(end)

To play the most songs, including Sugar Boats by Modest Mouse by ukulele, the most crucial basic ukulele chords to learn are C chord, D chord, G chord, and Em chord.
These set you up to play a a lot of songs, and each of them is easy to master.

If you are searching for Lounge ukulele chords, you have visit to the right place.
You can play versatile instrument Lounge using ukulele or guitar.
This song by Modest Mouse can also be played by that instruments.
=

Lounge chords has rhythm and included in This Is a Long Drive for Someone With Nothing to Think About (1996) album.
You can also find another musical genres, including jazz ukulele chords, country music ukulele chords, pop ukulele chords, world music ukulele chords, and rock ukulele chords here.

Lounge by Modest Mouse Ukulele Chords


---------------------
---------------------

Tuning: EADGBe

LOUNGE

Main Riff Structure (played in A#m)


e|--------------------|--------------------|
B|--------------------|--------------------|
G|--------------------|--------------------|
D|-8-xx-8-x-4-5-7-5-4-|-8-xx-8-x-7-5-4-5-7-|
A|-x-xx-x-------------|-x-xx-x-x-----------|
E|-6-xx-6-------------|-6-xx-6-x-----------|

Interlude Riff Harmonics


e|------------------|----------|----------|
B|------------------|----------|----------|
G|-7---7---7--------|----------|----------|
D|-7/8-7/8-7/8-7-8-|----5+----|----7+----|
A|------------------|-4+----4+-|-7+----7+-|
E|------------------|----------|----------|

1:30 Chords


e|-6-|-3-|-2-|
B|-6-|-3-|-2-|
G|-6-|-3-|-2-|
D|-8-|-5-|-4-|
A|-8-|-5-|-4-|
E|-6-|-3-|-2-|

ENDING OUTRO

2:33


e|-----------------|-----------------|-----------------|
B|-----------------|-----------------|-----------------|
G|-7/8-------------|-7/8-------------|-7/8-----7--8-10-|
D|-----7/8-5/6-7/8-|-----7/8-5/6-----|-----7/8---------|
A|-----------------|-------------5/6-|-----------------|
E|-----------------|-----------------|-----------------|
e|-----------------------------------------|
B|-----------------------------------------|
G|-10-10-10-10-10-10-10-10-8-8-8-8-7-7-8-8-|
D|-----------------------------------------|
A|-----------------------------------------|
E|-----------------------------------------|
e|-----------------------------------------|
B|-----------------------------------------|
G|-10-10-10-10-10-10-10-10-8-8-8-8-7-7-----|
D|-------------------------------------8-8-|
A|-----------------------------------------|
E|-----------------------------------------|
e|-------------------------|
B|----10-11-13-15-13-11-10-|
G|-10----------------------|
D|-------------------------|
A|-------------------------|
E|-------------------------|
e|-------------------|
B|-10/11-------------|
G|-------9/10-7/8-10-|
D|-------------------|
A|-------------------|
E|-------------------|

There’s like 3 variations of each riff and I’m not listing them all.
But they are made up of the notes listed.


e|----------------------------------|
B|--------------------10-11-13-15---|
G|-7-8-------------10-------------9-|
D|-----7-8-5-6----------------------|
A|-------------5-6------------------|
E|----------------------------------|

| / slide up
| slide down
| h hammer-on
| p pull-off
| ~ vibrato
| + harmonic
| x Mute note

To play the most songs, including Lounge by Modest Mouse by ukulele, the most crucial basic ukulele chords to learn are C chord, D chord, G chord, and Em chord.
These set you up to play a many of songs, and each of them is easy to learn.