If you are looking for Make It Right ukulele chords, you already visit to the best site.
You can play versatile instrument Make It Right using ukulele or guitar.
This song by New Found Glory can also be played by that instruments.
=

Make It Right chords has rhythm and included in Coming Home (2006) album.
You can also find other musical style, including jazz ukulele chords, country music ukulele chords, pop ukulele chords, world music ukulele chords, and rock ukulele chords here.

Make It Right by New Found Glory Ukulele Chords

Coming Home
2006 Geffen Records
Submitted by: paramore_fans@yahoo.com

Tuning: Standard EADGBe

Chords used:
A – x02220
E – 022100
D – [-] xx0232
Bm – x24432
A/C# – x476xx or x4222x

Intro: F#m-A-E-D (x2)

Guitar 2:


e|-2-2-2-2-2-0-------------------------------|
B|-------------2-2-2-2-2-0-----2-------------|
G|-------------------------2-2---2-----------|
D|---------------------------------4-4-4-4-4-| (x2)
A|-------------------------------------------|
E|-------------------------------------------|

Verse 1:
Focus on me there is more to see
But use discretion this ride isn’t free
I’ll prove them wrong I’ll prove them more wrong
The more I sit here the more that I think

Chorus:
Every mis[A/C#]take I make from now on I’ll turn around
I’ll make it, I’ll make it right
And every truth [A/C#]I fake I might hurt someone
I’ll make it, I’ll make it more right

Verse 2:
Pins and needles are up and down my spine
I’ll pull them out one by one[E–D]
I don’t need it all Give it all away
The more that I breathe it The more it seeps through
It’s a numbing feeling This is what I’ll do

(Repeat Chorus)

Interlude:

Bass:


G|---------------------------------|
D|---------------------------------|
A|---------0-0-0-0-1-1-2-2-3-3-4-4-| (x2)
E|-2-2-2-2-------------------------|

then


Guitar 1: D-A-E-D (x2) F#m-A-E-D-F#m--E--

Guitar 2:


e|-2-2-2-2-2-0-------------------------------|
B|-------------2-2-2-2-2-0-----2-------------|
G|-------------------------2-2---2-----------|
D|---------------------------------4-4-4-4-4-| (x2)
A|-------------------------------------------|
E|-------------------------------------------|

then


e|-------0-------0-|-2-2-2-2-2-----------|
B|-----------------|-----------0-0-0-0-0-|
G|-1--2-----1--2---|---------------------|
D|-----------------|---------------------|
A|-----------------|---------------------|
E|-----------------|---------------------|

x2

(Repeat Chorus)

Outro:
I’ll make it more right

Guitar 2:


e|-2-2-2-2-2-0-----------|
B|-------------2-2-2-2-2-|
G|-----------------------|
D|-----------------------|
A|-----------------------|
E|-----------------------|

Guitar 1: End on F#m

To play the most songs, including Make It Right by New Found Glory by ukulele, the most crucial basic ukulele chords to learn are C chord, D chord, G chord, and Em chord.
These set you up to play a ton of songs, and each of them is easy to master.

If you are looking for Too Good to Be ukulele chords, you’ve come to the best site.
You can play versatile instrument Too Good to Be using ukulele or guitar.
This song by New Found Glory can also be played by that instruments.
=

Too Good to Be chords has rhythm and included in Coming Home (2006) album.
You can also find other musical genres, including jazz ukulele chords, country music ukulele chords, pop ukulele chords, world music ukulele chords, and rock ukulele chords here.

Too Good to Be by New Found Glory Ukulele Chords


New Found Glory – “Too Good to Be”

Chords used:

E–0—-0—-0—-0—-0—-0—-0—|
B–0—-0—-0—-0—-0—-0—-0—|
G–6—-6-or-2—-2—-4—-9—-1—|
D–6—-7—-2—-4—-4—-9—-2—|
A–4—-7—-0—-4—-2—-7—-2—|
E–X—-5—-X—-2—-X—-X—-0—|


Intro/Verse:

Chorus:




During solo:




To play the this songs, including Too Good to Be by New Found Glory by ukulele, the most important basic ukulele chords to learn are C chord, D chord, G chord, and Em chord.
These set you up to play a many of songs, and each of them is easy to master.

If you are searching for Sonny ukulele chords, you’ve visit to the right place.
You can play versatile instrument Sonny using ukulele or guitar.
This song by New Found Glory can also be played by that instruments.
=

Sonny chords has rhythm and included in Sticks and Stones (2002) album.
You can also get another musical genres, including jazz ukulele chords, country music ukulele chords, pop ukulele chords, world music ukulele chords, and rock ukulele chords here.

Sonny by New Found Glory Ukulele Chords


Sonny- New Found Glory
Acoustic version by sinForge xJp

This IS NOT based on a recording/performance!!

Standard Tuning, Capo 2

e|———————————0——0—–|-
B|———————————1——3—–|-
G|–4——-2—————x——0——0—–|-
D|–0——-0——-5——-4——2——4—–|-
A|–x——-x——-2——-2——3——5—–|-
E|–3——-3——-0——-0——————-|-

In the chorus, “Em” is spelled it’s standard way (022000)

G… Gadd9.. G… Gadd9..
Em.. Em9… Em.. Em9…
G… Gadd9.. G… Gadd9..
Em.. Em9… Em.. Em9… G..

I’m sorry.. I heard about the bad news today
A crowd of people around you.. telling you it’s ok
And everything happens for a reason

When you lose a part of yourself to somebody you know
It takes a lot to let go.. Every breath that you remember
Pictures fade away, but memory’s forever

An empty chair at all the tables
And I’ll be seeing you when all my days boil down
But it’s better where you’re going anyway

G… Gadd9.. G… Gadd9..
Em.. Em9… Em.. Em9…
G… Gadd9.. G… Gadd9..
Em.. Em9… Em.. Em9… G..

I’m sorry.. I heard about the bad news today
It’s really hard to get through.. tough times and long days
But it really just depends on the season

When you lose a part of yourself to somebody you know
It takes a lot to let go.. Every breath that you remember
Pictures fade away, but memory’s forever

An empty chair at all the tables
And I’ll be seeing you when all my days boil down
For now we’ll say good bye... We know it’s not the last time
..I’ve lost the best part of my day
Dadd11 C Dadd11 G… Gadd9..
But it’s better where you’re going anyway

G… Gadd9.. G… Gadd9..
Em.. Em9… Em.. Em9…

An empty chair at all the tables
And I’ll be seeing you when all my days boil down
For now we’ll say good bye... We know it’s not the last time
..I’ve lost the best part of my day.. Yeah..
This is the last thing I... I will remember
It’s better where you’re going anyway

G… Gadd9.. G… Gadd9..
Em.. Em9… Em.. Em9… G..

To play the most songs, including Sonny by New Found Glory by ukulele, the most crucial basic ukulele chords to learn are C chord, D chord, G chord, and Em chord.
These set you up to play a a lot of songs, and each of them is easy to learn.

If you are searching for Sincerely Me ukulele chords, you’ve come to the best place.
You can play versatile instrument Sincerely Me using ukulele or guitar.
This song by New Found Glory can also be played by that instruments.
=

Sincerely Me chords has rhythm and included in New Found Glory (2000) album.
You can also get other musical genres, including jazz ukulele chords, country music ukulele chords, pop ukulele chords, world music ukulele chords, and rock ukulele chords here.

Sincerely Me by New Found Glory Ukulele Chords


SINCERELY ME – A New Found Glory
By: James Diaz
PM – Palm Mute
BR – Backround
~ – Let Ring
cords


e|--- --- --- --- ---- --- -------|
B|--- --- --- --- ---- --- -------|
G|--- --- --- --- ---- ------- ---|
D|--- -9- -7- -5- -10- -4- ---|
A|--- -9- -7- -5- -10- -4- ---|
E|--- -7- -5- -3- --8- -2- ---|

Intro: Bass


G|---------------------------------------------------------------------------|
D|------4-5-------4-5-----4-4-5-9-5------------------------------------------|
A|---------------------------------------------------------------------------|
E|---33--------33------77----------------------------------------------------|

[All of this is within the intro]
Dear your name here. Its been a long time very long time. Since ive heard your
voice and I bet she never thought i was.
[A LR]
….So sorry so, I got a hard time very hard time seeing less of yooouuu
[ Scream this part out ] PM
I never thought you kneewwww.
.. So can you seeeeee your seeing less of me darliiiing. And your blind to the
fact that my hearts stoping. .....……..And im as good as deeeeeeead.…….
And im as good as deeeeeead.
[Intro
Dear I forgot your name again just picking up her letsoffoh yeaaah.
[A LR]
This is the part where you leave me…..So sorry so, I’ve had a hard time very
hard time seeing less of
[ Scream this part out ] PM]
yoooou I never thought you kneeeeew.
.So can you seeeeeee your seeing less of me darling. And your blind to
the fact that my hearts stoping. So can you seee your seeing less of me darling.
And your blind to the fact that my hearts stoping. ..And im as good as deead.
[
Bridge:
guitar one


e|-----------------------------------------------------------------------------------------------------------|
B|-----------------------------------------------------------------------------------------------------------|
G|------------------------------------5555555555555555---------------------------------------------|
D|--5555555555555555-7777777777777777-5555555555555555-----------------------|
A|--5555555555555555-7777777777777777-3333333333333333-----------------------|
E|--3333333333333333-5555555555555555----------------------------------------------------|
PM-------------------------------------------------PM

Listen to song to figure this part out.


e|---------------------------------------------------------------------------|
B|---------------------------------------------------------------------------|
G|-----------------------5---------------------------------------------------|
D|---5-5-5-5-----5-5-5-5-5------5-5-5-5----5-5-5-5-7-------------------------|
A|---5-5-5-5-----5-5-5-5-3------5-5-5-5----5-5-5-5-7-------------------------|
E|---3-3-3-3-----3-3-3-3--------3-3-3-3----3-3-3-3-5-------------------------|

guitar two


e|---------------------------------------------------------------------------|
B|---------------------------------------------------------------------------|
G|-------7-7-7-6-6-6-4-4-6-6-6-6-6-6-6---------------------------------------|
D|---------------------------------------------------------------------------|
A|---------------------------------------------------------------------------|
E|---------------------------------------------------------------------------|

[This…this is all….. I have ….to saaaay …..to saaaaay..GO]
.So can you seeeeee your seeing less of me darling. And your blind to the fact that
my hearts stoping. …..So can you seeeeee so can you see your seeing less of me darling.
And your blind to the fact that my hearts stopiiiing stoping
.So can you seeeeee your seeing less of me darling. And your blind to the fact that

my hearts stoping stopiiing stoping stoping.

To play the this songs, including Sincerely Me by New Found Glory by ukulele, the most crucial basic ukulele chords to learn are C chord, D chord, G chord, and Em chord.
These set you up to play a many of songs, and each of them is easy to learn.