If you are looking for This Afternoon ukulele chords, you already come to the best site.
You can play versatile instrument This Afternoon using ukulele or guitar.
This song by Nickelback can also be played by that instruments.
=

This Afternoon chords has rhythm and included in Dark Horse (2008) album.
You can also get other musical genres, including jazz ukulele chords, country music ukulele chords, pop ukulele chords, world music ukulele chords, and rock ukulele chords here.

This Afternoon by Nickelback Ukulele Chords


I used this video to do the tabs :
Have fun !

No capo, standart tunning
Chords Used :

[D/F#] [G/E]

e|–3——–3——–3——–3——–3——–3——–3——–0-|
B|–3——–3——–3——–3——–3——–2——–3——–0-|
G|–0——–2——–0——–0——–0——–3——–0——–0-|
D|–2——–0——–0——–0——–0——–0——–0——–2-|
A|–3——–0——–0——–2——–3——–x——–2——–2-|
E|–x——–2——–3——–0——–x——–x——–3——–0-|

G D/F# Cadd9 D x8



Em D G Cadd9 x2

G D/F# Cadd9 D x5



Em D G Cadd9 x4

[D/F#]
Cadd9 D Gadd9 Em7 G/E Cadd9 x4

G D/F# Cadd9 D x3



Em D G Cadd9 x4


G D/F# Cadd9 D x5

To play the this songs, including This Afternoon by Nickelback by ukulele, the most crucial basic ukulele chords to learn are C chord, D chord, G chord, and Em chord.
These set you up to play a a lot of songs, and each of them is easy to learn.

If you are searching for Money Bought ukulele chords, you’ve come to the right place.
You can play versatile instrument Money Bought using ukulele or guitar.
This song by Nickelback can also be played by that instruments.
=

Money Bought chords has rhythm and included in Silver Side Up (2001) album.
You can also get other musical style, including jazz ukulele chords, country music ukulele chords, pop ukulele chords, world music ukulele chords, and rock ukulele chords here.

Money Bought by Nickelback Ukulele Chords

Tune: Drop D

Mainly throughout the song.




A|—-0—0—-3—3—0—0—5—5———–5—5—5
D|—-0—0—-3—3—0—0—5—5———–5—5—5





D|—-0—0—-3—3—0—0—5—5——–^5

To play the this songs, including Money Bought by Nickelback by ukulele, the most important basic ukulele chords to learn are C chord, D chord, G chord, and Em chord.
These set you up to play a many of songs, and each of them is easy to learn.

If you are searching for Hero ukulele chords, you’ve come to the right place.
You can play versatile instrument Hero using ukulele or guitar.
This song by Nickelback can also be played by that instruments.
=

Hero chords has rhythm and included in The Long Road (2003) album.
You can also find another musical genres, including jazz ukulele chords, country music ukulele chords, pop ukulele chords, world music ukulele chords, and rock ukulele chords here.

Hero by Nickelback Ukulele Chords

This tab is all my own work, so please inform me before
you decide to steal it and take credit for it. Thanks.

TUNED DOWN 1/2 STEP

CHORDS:

——-

eb|–0–| |–0–| |–1–| |–4–| |–6–| |–8—|
Bb|–1–| |–0–| |–1–| |–4–| |–6–| |–8—|
Gb|–2–| |–2–| |–1–| |–4–| |–6–| |–8—|
Db|–2–| |–2–| |–3–| |–6–| |–8–| |–10–|
Ab|–0–| |–0–| |–3–| |–6–| |–8–| |–10–|
Eb|–x–| |–x–| |–1–| |–4–| |–6–| |–8—|

VERSE:

——

I am so high, I can hear heaven
I am so high, I can hear heaven
Oh, But heaven, no heaven don’t hear me

CHORUS:

——-

And they say that a hero can save us
I’m not gonna stand here and wait
We’ll hold on to the wings of the eagles
And watch as we all fly away

VERSE:

——

Someone told me love would only save us
But how can that be? Look what love gave us
A world full of killing and blood spilling
That we’ll never change

CHORUS

——

SOLO:
[—–]

eb|———————————————————————|
Bb|———————————————————————|
Gb|———————————————————————|
Db|———————————————————————|
Ab|-6p5-6p5-6p5—6p5-6p5-6p5———10p8-10p8-10p8-6–10p8-10p8-10p8–|
Eb|————-6————-8–8-10———————————–|
eb|—————————————-|
Bb|—————————————-|
Gb|—————————————-|
Db|—————————————-|
Ab|-10p8-10p8-10p8-6–10p8-10p8-10p8——-|
Eb|———————————-10-8–|

BRIDGE:

——-

Now that the world is ending, it’s love that I’m sending to you
It’s in the love of a hero, and that’s why I fear it won’t do

CHORUS

——

END:
[—-]End on C chord.

——————————————–
———————————————

To play the most songs, including Hero by Nickelback by ukulele, the most crucial basic ukulele chords to learn are C chord, D chord, G chord, and Em chord.
These set you up to play a a lot of songs, and each of them is easy to learn.

If you are looking for Hollywood ukulele chords, you’ve visit to the right site.
You can play versatile instrument Hollywood using ukulele or guitar.
This song by Nickelback can also be played by that instruments.
=

Hollywood chords has rhythm and included in Silver Side Up (2001) album.
You can also find another musical style, including jazz ukulele chords, country music ukulele chords, pop ukulele chords, world music ukulele chords, and rock ukulele chords here.

Hollywood by Nickelback Ukulele Chords


Ok this is real simple, or so i think so, but anyway its a great song by a great band,
involves like, 4 chords. HERE GOES!!!!!!!!! ENJOY!!!!
(S SCRATCH)


S S S S




And there ya have it, really short and simple! Remember, leave comments and/or
Thank you!!!!!!!!!!!!!!!!!!!!!!!!!!!!!!!!!!

To play the this songs, including Hollywood by Nickelback by ukulele, the most important basic ukulele chords to learn are C chord, D chord, G chord, and Em chord.
These set you up to play a ton of songs, and each of them is easy to master.

If you are looking for See You at the Show ukulele chords, you have come to the best site.
You can play versatile instrument See You at the Show using ukulele or guitar.
This song by Nickelback can also be played by that instruments.
=

See You at the Show chords has rhythm and included in The Long Road (2003) album.
You can also find other musical genres, including jazz ukulele chords, country music ukulele chords, pop ukulele chords, world music ukulele chords, and rock ukulele chords here.

See You at the Show by Nickelback Ukulele Chords

See You At The Show Chords By Nickelback @ www.Ultimate-guitar.com
Tabbed by Ben Downes.
I think this the forth song that i have put chords on ultimate-guitar
for Nickelback.
These four guys will never sease to amaze me I will always be impressed
By Nickelbacks songs.

Chad Kroeger comes in with the chord intro 4 times
Then the rest of the band comes in.

Verse
Crowds that scream at superstars
where bouncer’s show thier battle scars
I’ve been the first to sign on every wall
Down the road and round the bend
We pray to god it never ends
I’ve been, I’ve seen, we’ve screamed to everyone

Chorus
We’ll see you at the show
If you don’t come we’ll never know
You stand off in the back
You still stand out while your wearing black
Jump on to the bus
And ride around with all of us
We’ll go out on the town
And light it up till we burn it down
Burn it down

2nd verse
After hours of alcohol
Every club, we’ve seen “em” all
As long as we don't need to stand in line
Party scenes and bill board dreams
The ladies love those limousines
You know there gonna show up every time

Chorus
We’ll see you at the show
If you don’t come we’ll never know
You stand off in the back
You still stand out while your wearing black
Jump on to the bus
And ride around with all of us
We’ll go out on the town
And light it up till we burn it down
Burn it down

Bridge:

e|—————————————————————–|
B|—————————————————————–|
G|—————————————————————–|
D|—————————————————4-4-4–4-4-4–|
A|———2——-2————-5———2———4-4-4–4-4-4–|
D|-0-2-3-4—3-2-0—4-3-2-0-2-3—0-2-3-4—4-3-2.–4-4-4–4-4-4–|
e|————————————————————–|
B|————————————————————–|
G|————————————————————–|
D|—————————————————4-4-4–2~–|
A|———2——-2————-5———2———4-4-4–2~–|
D|-0-2-3-4—3-2-0—4-3-2-0-2-3—0-2-3-4—4-3-2.–4-4-4–2~–|

Solo:

e|————————————————————-|
B|————————————————————-|
G|————————————————————-|
D|———————————–12————————|
A|—————-10b~r–12~~-12-12—-12~~———/5——–|
D|-x/12~–10~~~~——————————0-3~~—-3~~~~–|
e|——————————————————-|
B|——————————————————-|
G|-7h9-7–7h9-7-5—–5–7h9-7–7h9-7-5—–7h9-7~~~~~~–|
D|—————-5h7——————-5h7————–|
A|——————————————————-|
D|——————————————————-|

Verse
Crowds that scream at superstars
where bouncer’s show thier battle scars
I’ve been the first to sign on every wall
Down the road and round the bend
We pray to god it never ends
I’ve been, I’ve seen, we’ve screamed to everyone

Chorus
We’ll see you at the show
If you don’t come we’ll never know
You stand off in the back
You still stand out while your wearing black
Jump on to the bus
And ride around with all of us
We’ll go out on the town
And light it up till we burn it down
Burn it down

Light it up till we burn it down
Light it up till we burn it down
Light it up till we burn it down, burn it down

Finish on (Gb)

I am damn sure that this tab is 100% correct
If you find that there are any incorrections
Email them to me @ jamin2_85@hotmail.com
Best of luck to all of you who are learning this song

To play the most songs, including See You at the Show by Nickelback by ukulele, the most important basic ukulele chords to learn are C chord, D chord, G chord, and Em chord.
These set you up to play a ton of songs, and each of them is easy to master.

If you are looking for Lullaby ukulele chords, you have visit to the right site.
You can play versatile instrument Lullaby using ukulele or guitar.
This song by Nickelback can also be played by that instruments.
=

Lullaby chords has rhythm and included in Here and Now (2011) album.
You can also find other musical genres, including jazz ukulele chords, country music ukulele chords, pop ukulele chords, world music ukulele chords, and rock ukulele chords here.

Lullaby by Nickelback Ukulele Chords


Song: Lullaby
Tuning: Standard
Tabbed by: azz1993

Chords Used


e|-4------7------2------2-------4---|
B|-5------9------4------2-------4---|
G|-6------9------4------5-------4---|
D|-6------9------4------4-------6---|
A|-4------7------2------4-------6---|
E|----------------------2-------4---|

____________________________________________________



e|-----------------------------|
B|---5------9--------4------2--|
G|--6------9--------4------5---|
D|-6------9--------4------4----|
A|-----------------------------|
E|-----------------------------|


e|-----------------------------|
B|---5------9--------4------2--|
G|--6------9--------4------5---|
D|-6------9--------4------4----|
A|-----------------------------|
E|-----------------------------|

[VERSE No.1]
Well I know the feeling
Of finding yourself stuck out on the ledge
And there ain’t no healing
From cutting yourself with the jagged edge

[VERSE 2]
I’m telling you that its never that bad


e|--------------------------------|
B|--------5----------9------------|
G|------6----------9--------------|
D|----6----------9----------------|
A|--------------------------------|
E|--------------------------------|

Take it from someone whose been where you’re at


e|--------------------------------|
B|--------4----------2------------|
G|------4----------5--------------|
D|----4----------4----------------|
A|--------------------------------|
E|--------------------------------|

Laid out on the floor and your not sure


e|--------------------------------|
B|--------4----------4------------|
G|------4----------4--------------|
D|----4----------4----------------|
A|--------------------------------|
E|--------------------------------|

You can take this anymore


e|--------------------------------|
B|--------2-----------------------|
G|------5-------------------------|
D|----4---------------------------|
A|--------------------------------|
E|--------------------------------|


So just give it one more try to a lullaby


e|--------------------------------|
B|--------5----------9------------|
G|------6----------9--------------|
D|----6----------9----------------|
A|--------------------------------|
E|--------------------------------|

And turn this up on the radio


e|--------------------------------|
B|--------4----------2------------|
G|------4----------5--------------|
D|----4----------4----------------|
A|--------------------------------|
E|--------------------------------|

If you can hear me now I’m reaching out


e|--------------------------------|
B|--------5----------9------------|
G|------6----------9--------------|
D|----6----------9----------------|
A|--------------------------------|
E|--------------------------------|

To let you know that you’re not alone


e|--------------------------------|
B|--------4----------2------------|
G|------4----------5--------------|
D|----4----------4----------------|
A|--------------------------------|
E|--------------------------------|

And you can’t tell I’m scared as hell


e|--------------------------------|
B|--------5----------9------------|
G|------6----------9--------------|
D|----6----------9----------------|
A|--------------------------------|
E|--------------------------------|

Cause I can’t get you on the telephone


e|--------------------------------|
B|--------4----------2------------|
G|------4----------5--------------|
D|----4----------4----------------|
A|--------------------------------|
E|--------------------------------|

So just close your eyes (close your eyes)


e|--------------------------------|
B|--------5----------9------------|
G|------6----------9--------------|
D|----6----------9----------------|
A|--------------------------------|
E|--------------------------------|
e|--------------------------------|
B|--------4----------4------------|
G|------4----------4--------------|
D|----4----------4----------------|
A|--------------------------------|
E|--------------------------------|

Well honey here comes a lullaby


e|--------------------------------|
B|--------5----------9------------|
G|------6----------9--------------|
D|----6----------9----------------|
A|--------------------------------|
E|--------------------------------|

Your very own lullaby


e|--------------------------------|
B|--------4----------2------------|
G|------4----------5--------------|
D|----4----------4----------------|
A|--------------------------------|
E|--------------------------------|

[VERSE No.3]
Please let me take you


e|--------------------------------|
B|--------5----------9------------|
G|------6----------9--------------|
D|----6----------9----------------|
A|--------------------------------|
E|--------------------------------|

Out of the darkness and into the light


e|--------------------------------|
B|--------4----------2------------|
G|------4----------5--------------|
D|----4----------4----------------|
A|--------------------------------|
E|--------------------------------|

Cause I have faith in you


e|--------------------------------|
B|--------5----------9------------|
G|------6----------9--------------|
D|----6----------9----------------|
A|--------------------------------|
E|--------------------------------|

That you’re gonna make it through another night


e|--------------------------------|
B|--------4----------2------------|
G|------4----------5--------------|
D|----4----------4----------------|
A|--------------------------------|
E|--------------------------------|

Stop thinking about the easy way out


e|--------------------------------|
B|--------5----------9------------|
G|------6----------9--------------|
D|----6----------9----------------|
A|--------------------------------|
E|--------------------------------|

There’s no need to go and blow the candle out


e|--------------------------------|
B|--------4----------2------------|
G|------4----------5--------------|
D|----4----------4----------------|
A|--------------------------------|
E|--------------------------------|

Because you’re not done you’re far too young


e|--------------------------------|
B|--------2----------2------------|
G|------5----------5--------------|
D|----4----------4----------------|
A|--------------------------------|
E|--------------------------------|

And the best is yet to come


e|--------------------------------|
B|--------2-----------------------|
G|------5-------------------------|
D|----4---------------------------|
A|--------------------------------|
E|--------------------------------|


So just give it one more try to a lullaby


e|--------------------------------|
B|--------5----------9------------|
G|------6----------9--------------|
D|----6----------9----------------|
A|--------------------------------|
E|--------------------------------|

And turn this up on the radio


e|--------------------------------|
B|--------4----------2------------|
G|------4----------5--------------|
D|----4----------4----------------|
A|--------------------------------|
E|--------------------------------|

If you can hear me now I’m reaching out


e|--------------------------------|
B|--------5----------9------------|
G|------6----------9--------------|
D|----6----------9----------------|
A|--------------------------------|
E|--------------------------------|

To let you know that you’re not alone


e|--------------------------------|
B|--------4----------2------------|
G|------4----------5--------------|
D|----4----------4----------------|
A|--------------------------------|
E|--------------------------------|

And you can’t tell I’m scared as hell


e|--------------------------------|
B|--------5----------9------------|
G|------6----------9--------------|
D|----6----------9----------------|
A|--------------------------------|
E|--------------------------------|

Cause I can’t get you on the telephone


e|--------------------------------|
B|--------4----------2------------|
G|------4----------5--------------|
D|----4----------4----------------|
A|--------------------------------|
E|--------------------------------|

So just close your eyes (close your eyes)


e|--------------------------------|
B|--------5----------9------------|
G|------6----------9--------------|
D|----6----------9----------------|
A|--------------------------------|
E|--------------------------------|
e|--------------------------------|
B|--------4----------4------------|
G|------4----------4--------------|
D|----4----------4----------------|
A|--------------------------------|
E|--------------------------------|

Well honey here comes a lullaby


e|--------------------------------|
B|--------5----------9------------|
G|------6----------9--------------|
D|----6----------9----------------|
A|--------------------------------|
E|--------------------------------|

Your very own lullaby


e|--------------------------------|
B|--------4----------2------------|
G|------4----------5--------------|
D|----4----------4----------------|
A|--------------------------------|
E|--------------------------------|


Well everybody’s hit the bottom
And everybody’s been forgotten
When everybody’s tired of being alone
Yeah everybody’s been abandoned
And left a little empty handed
So if you’re out there barely hanging on


So just give it one more try to a lullaby


e|--------------------------------|
B|--------5----------9------------|
G|------6----------9--------------|
D|----6----------9----------------|
A|--------------------------------|
E|--------------------------------|

And turn this up on the radio


e|--------------------------------|
B|--------4----------2------------|
G|------4----------5--------------|
D|----4----------4----------------|
A|--------------------------------|
E|--------------------------------|

If you can hear me now I’m reaching out


e|--------------------------------|
B|--------5----------9------------|
G|------6----------9--------------|
D|----6----------9----------------|
A|--------------------------------|
E|--------------------------------|

To let you know that you’re not alone


e|--------------------------------|
B|--------4----------2------------|
G|------4----------5--------------|
D|----4----------4----------------|
A|--------------------------------|
E|--------------------------------|

And you can’t tell I’m scared as hell


e|--------------------------------|
B|--------5----------9------------|
G|------6----------9--------------|
D|----6----------9----------------|
A|--------------------------------|
E|--------------------------------|

Cause I can’t get you on the telephone


e|--------------------------------|
B|--------4----------2------------|
G|------4----------5--------------|
D|----4----------4----------------|
A|--------------------------------|
E|--------------------------------|

So just close your eyes (close your eyes)


e|--------------------------------|
B|--------5----------9------------|
G|------6----------9--------------|
D|----6----------9----------------|
A|--------------------------------|
E|--------------------------------|
e|--------------------------------|
B|--------4----------4------------|
G|------4----------4--------------|
D|----4----------4----------------|
A|--------------------------------|
E|--------------------------------|

Well honey here comes a lullaby


e|--------------------------------|
B|--------5----------9------------|
G|------6----------9--------------|
D|----6----------9----------------|
A|--------------------------------|
E|--------------------------------|

Your very own lullaby


e|--------------------------------|
B|--------4----------2------------|
G|------4----------5--------------|
D|----4----------4----------------|
A|--------------------------------|
E|--------------------------------|


Well honey here comes a lullaby
Your very own lullaby


Note the riff is played based on the shape of the chords played by the other
guitar(a piano in the song but sounds good on guitar). I find the 7th fret
E Chord makes it easier to transition to the B and it sounds better than an open E.
Any comments, questions and fixes please dont hesitate to comment 🙂
Enjoy!
azz1993

To play the most songs, including Lullaby by Nickelback by ukulele, the most crucial basic ukulele chords to learn are C chord, D chord, G chord, and Em chord.
These set you up to play a a lot of songs, and each of them is easy to learn.

If you are searching for Feed the Machine ukulele chords, you’ve visit to the right site.
You can play versatile instrument Feed the Machine using ukulele or guitar.
This song by Nickelback can also be played by that instruments.
=

Feed the Machine chords has rhythm and included in Feed the Machine (2017) album.
You can also find another musical style, including jazz ukulele chords, country music ukulele chords, pop ukulele chords, world music ukulele chords, and rock ukulele chords here.

Feed the Machine by Nickelback Ukulele Chords



D|--------------------------------------------------|Only play this once (1x)
A|--------------------------------------------------|
F|--------------------------------------------------|
A|--------------------------------------------------|
G|--0--------------8p5-----3h5----------------------|
C|--0--0-0-5p3-0-0-----0-0--------------------------|

PM

[Full Intro – Both guitars]


D|--------------------------------------------------|----------------------------------------------------|
A|--------------------------------------------------|----------------------------------------------------|
F|--------------------------------------------------|----------------------------------------------------|
C|--0-----------------------------------------------|--0-------------------------------------------------|
G|--0--------------5--x-x--------------8p5-----3h5--|--0--------------5----x-x--------------8p5-----3h5--|
C|--0--0-0-5p3-0-0----x-x--0-0-5p3-0-0-----0-0------|--0--0-0-5p3-0-0----0-x-x--0-0-5p3-0-0-----0-0------|

PM


D|--------------------------------------------------|----------------------------------------------------|
A|--------------------------------------------------|----------------------------------------------------|
F|--------------------------------------------------|----------------------------------------------------|
C|--0-----------------------------------------------|--0-------------------------------------------------|
G|--0--------------5--x-x--------------8p5-----3h5--|--0--------------5----x-x--------------8p5-----3h5--|
C|--0--0-0-5p3-0-0----x-x--0-0-5p3-0-0-----0-0------|--0--0-0-5p3-0-0----0-x-x--0-0-5p3-0-0-----0-0------|

PM

[Pre verse – rhythm]


D|--------------------------|Let the chord ring out throughout the first 4 beats of the verse
A|--------------------------|
F|--------------------------|
C|--------------------------|
G|-0~-----------------------|
C|-0~-----------------------|

[Verse – lead clean/delay)


D|--------------------------|-----------------------------|
A|--------------------------|-----------------------------|
F|---------------------14---|--------------9----------10--|
C|--12--12-12--12-12-12-----|--10-10--10-10---10-10-10----|
G|--------------------------|-----------------------------|
C|--------------------------|-----------------------------|

PM


D|--------------------------|-----------------------------|
A|--------------------------|-----------------------------|
F|---------------------14---|--------------9-------10-----|
C|--12--12-12--12-12-12-----|--10-10--10-10---10-10---12--|
G|--------------------------|-----------------------------|
C|--------------------------|-----------------------------|

PM


D|--------------------------|-----------------------------|
A|--------------------------|-----------------------------|
F|---------------------14---|--------------9----------10--|
C|--12--12-12--12-12-12-----|--10-10--10-10---10-10-10----|
G|--------------------------|-----------------------------|
C|--------------------------|-----------------------------|

PM

Rhythm guitar kicks in


D|--------------------------|-----------------------------|
A|--------------------------|-----------------------------|
F|---------------------14---|--------------9-------10-----|
C|--12--12-12--12-12-12-----|--10-10--10-10---10-10---12--|
G|--------------------------|-----------------------------|
C|--------------------------|-----------------------------|

PM

[Verse – Rythm]


D|--------------------------------|--------------------------------|
A|--------------------------------|--------------------------------|
F|--------------------------------|--------------------------------|
C|--0--0----0--0----0--0----0--0--|--0--0----0--0----0--0----0--0--|
G|--0--0----0--0----0--0----0--0--|--0--0----0--0----0--0----0--0--|
C|--0--0----0--0----0--0----0--0--|--0--0----0--0----0--0----0--0--|

[Pre chorus – both guitars]


D|-------------------------|-------------------------|-------------------------|-------------------------|
A|-------------------------|-------------------------|-------------------------|-------------------------|
F|--14--14-14---14--14-14--|--14--14-14---14--14-14--|--14--14-14---14--14-14--|--14--14-14---14--14-14--|
C|--x---x--x----x---x--x---|--12--12-12---12--12-12--|--x---x--x----x---x--x---|--12--12-12---12--12-12--|
G|--x---x--x----x---x--x---|--10--10-10---10--10-10--|--x---x--x----x---x--x---|--10--10-10---10--10-10--|
C|--12--12-12---12--12-12--|--10--10-10---10--10-10--|--12--12-12---12--12-12--|--10--10-10---10--10-10--|
D|-------------------| Small lick before the chorus
A|-------------------|
F|-------------------|
C|-------------------|
G|------8p5-----3h5--|
C|--0-0-----0-0------|

PM

[Chorus – both guitars] Listen to the song for the excact rhyhtm timing


D|-------------------------------------------------------------------------------|
A|-------------------------------------------------------------------------------|
F|-------------------------------------------------------------------------------|
C|-------------------------------------------------------------------------------|
G|--0--0-0-0-3/108--8-8-8-8--8-8-8-8--10--5--5-5-5-5-5--3--5--5-5-5-5-5-5--3-5--|
C|--0--0-0-0-3/108--8-8-8-8--8-8-8-8--10--5--5-5-5-5-5--3--5--5-5-5-5-5-5--3-5--|
D|-------------------------------------------------------------------------------|
A|-------------------------------------------------------------------------------|
F|-------------------------------------------------------------------------------|
C|-------------------------------------------------------------------------------|
G|--0--0-0-0-3/108--8-8-8-8--8-8-8-8--10--5--5-5-5-5-5--3--5--5-5-5-5-5-5--3-5--|
C|--0--0-0-0-3/108--8-8-8-8--8-8-8-8--10--5--5-5-5-5-5--3--5--5-5-5-5-5-5--3-5--|
D|-------------------------------------------------------------------------------|
A|-------------------------------------------------------------------------------|
F|-------------------------------------------------------------------------------|
C|-------------------------------------------------------------------------------|
G|--0--0-0-0-3/108--8-8-8-8--8-8-8-8--10--5--5-5-5-5-5--3--5--5-5-5-5-5-5--3-5--|
C|--0--0-0-0-3/108--8-8-8-8--8-8-8-8--10--5--5-5-5-5-5--3--5--5-5-5-5-5-5--3-5--|
D|-------------------------------------------------------------|
A|-------------------------------------------------------------|
F|-------------------------------------------------------------|
C|-------------------------------------------------------------|
G|--0--0-0-0-3/108--8-8-8-8--8-8-8-8--10--5--5-5-5-5-5--3--5--|
C|--0--0-0-0-3/108--8-8-8-8--8-8-8-8--10--5--5-5-5-5-5--3--5--|

[Main Riff – Both guitars] (equal to the intro parts)


D|---------------------------|
A|---------------------------|
F|---------------------------|
C|---------------------------|
G|--------------8p5-----3h5--|
C|--0-0-5p3-0-0-----0-0------|

PM


D|--------------------------------------------------|----------------------------------------------------|
A|--------------------------------------------------|----------------------------------------------------|
F|--------------------------------------------------|----------------------------------------------------|
C|--0-----------------------------------------------|--0-------------------------------------------------|
G|--0--------------5--x-x--------------8p5-----3h5--|--0--------------5----x-x--------------8p5-----3h5--|
C|--0--0-0-5p3-0-0----x-x--0-0-5p3-0-0-----0-0------|--0--0-0-5p3-0-0----0-x-x--0-0-5p3-0-0-----0-0------|

PM


D|--------------------------------------------------|----------------------------------------------------|
A|--------------------------------------------------|----------------------------------------------------|
F|--------------------------------------------------|----------------------------------------------------|
C|--0-----------------------------------------------|--0-------------------------------------------------|
G|--0--------------5--x-x--------------8p5-----3h5--|--0--------------5----x-x--------------8p5-----3h5--|
C|--0--0-0-5p3-0-0----x-x--0-0-5p3-0-0-----0-0------|--0--0-0-5p3-0-0----0-x-x--0-0-5p3-0-0-----0-0------|

PM

[Verse 2 – lead clean/delay) equal to first verse and pre chorus


D|--------------------------|-----------------------------|
A|--------------------------|-----------------------------|
F|---------------------14---|--------------9----------10--|
C|--12--12-12--12-12-12-----|--10-10--10-10---10-10-10----|
G|--------------------------|-----------------------------|
C|--------------------------|-----------------------------|

PM


D|--------------------------|-----------------------------|
A|--------------------------|-----------------------------|
F|---------------------14---|--------------9-------10-----|
C|--12--12-12--12-12-12-----|--10-10--10-10---10-10---12--|
G|--------------------------|-----------------------------|
C|--------------------------|-----------------------------|

PM


D|--------------------------|-----------------------------|
A|--------------------------|-----------------------------|
F|---------------------14---|--------------9----------10--|
C|--12--12-12--12-12-12-----|--10-10--10-10---10-10-10----|
G|--------------------------|-----------------------------|
C|--------------------------|-----------------------------|

PM

Rhythm guitar kicks in


D|--------------------------|-----------------------------|
A|--------------------------|-----------------------------|
F|---------------------14---|--------------9-------10-----|
C|--12--12-12--12-12-12-----|--10-10--10-10---10-10---12--|
G|--------------------------|-----------------------------|
C|--------------------------|-----------------------------|

PM

[Verse – Rythm]


D|--------------------------------|--------------------------------|
A|--------------------------------|--------------------------------|
F|--------------------------------|--------------------------------|
C|--0--0----0--0----0--0----0--0--|--0--0----0--0----0--0----0--0--|
G|--0--0----0--0----0--0----0--0--|--0--0----0--0----0--0----0--0--|
C|--0--0----0--0----0--0----0--0--|--0--0----0--0----0--0----0--0--|

[Pre chorus – both guitars]


D|-------------------------|-------------------------|-------------------------|-------------------------|
A|-------------------------|-------------------------|-------------------------|-------------------------|
F|--14--14-14---14--14-14--|--14--14-14---14--14-14--|--14--14-14---14--14-14--|--14--14-14---14--14-14--|
C|--x---x--x----x---x--x---|--12--12-12---12--12-12--|--x---x--x----x---x--x---|--12--12-12---12--12-12--|
G|--x---x--x----x---x--x---|--10--10-10---10--10-10--|--x---x--x----x---x--x---|--10--10-10---10--10-10--|
C|--12--12-12---12--12-12--|--10--10-10---10--10-10--|--12--12-12---12--12-12--|--10--10-10---10--10-10--|
D|-------------------| Small lick before the chorus
A|-------------------|
F|-------------------|
C|-------------------|
G|------8p5-----3h5--|
C|--0-0-----0-0------|

PM

[Chorus 2 – both guitars] Listen to the song for the excact rhyhtm timing


D|-------------------------------------------------------------------------------|
A|-------------------------------------------------------------------------------|
F|-------------------------------------------------------------------------------|
C|-------------------------------------------------------------------------------|
G|--0--0-0-0-3/108--8-8-8-8--8-8-8-8--10--5--5-5-5-5-5--3--5--5-5-5-5-5-5--3-5--|
C|--0--0-0-0-3/108--8-8-8-8--8-8-8-8--10--5--5-5-5-5-5--3--5--5-5-5-5-5-5--3-5--|
D|-------------------------------------------------------------------------------|
A|-------------------------------------------------------------------------------|
F|-------------------------------------------------------------------------------|
C|-------------------------------------------------------------------------------|
G|--0--0-0-0-3/108--8-8-8-8--8-8-8-8--10--5--5-5-5-5-5--3--5--5-5-5-5-5-5--3-5--|
C|--0--0-0-0-3/108--8-8-8-8--8-8-8-8--10--5--5-5-5-5-5--3--5--5-5-5-5-5-5--3-5--|
D|-------------------------------------------------------------------------------|
A|-------------------------------------------------------------------------------|
F|-------------------------------------------------------------------------------|
C|-------------------------------------------------------------------------------|
G|--0--0-0-0-3/108--8-8-8-8--8-8-8-8--10--5--5-5-5-5-5--3--5--5-5-5-5-5-5--3-5--|
C|--0--0-0-0-3/108--8-8-8-8--8-8-8-8--10--5--5-5-5-5-5--3--5--5-5-5-5-5-5--3-5--|
D|-------------------------------------------------------------|
A|-------------------------------------------------------------|
F|-------------------------------------------------------------|
C|-------------------------------------------------------------|
G|--0--0-0-0-3/108--8-8-8-8--8-8-8-8--10--5--5-5-5-5-5--3--5--|
C|--0--0-0-0-3/108--8-8-8-8--8-8-8-8--10--5--5-5-5-5-5--3--5--|

[Pre bridge – both guitars}


D|-------------------| Small lick before the bridge/solo
A|-------------------|
F|-------------------|
C|-------------------|
G|------8p5-----3h5--|
C|--0-0-----0-0------|

PM

During the bridge part below the solo is played. Havent completely figured the solo out yet, but I’ll update
the tab as soon as I do!

[Bridge 1 – both guitars]


D|--------------------------------------------------|----------------------------------------------------|
A|--------------------------------------------------|----------------------------------------------------|
F|--------------------------------------------------|----------------------------------------------------|
C|--0-----------------------------------------------|--0-------------------------------------------------|
G|--0--------------5--x-x--------------8p5-----3h5--|--0--------------5----x-x--------------8p5-----3h5--|
C|--0--0-0-5p3-0-0----x-x--0-0-5p3-0-0-----0-0------|--0--0-0-5p3-0-0----0-x-x--0-0-5p3-0-0-----0-0------|

PM


D|--------------------------------------------------|----------------------------------------------------|
A|--------------------------------------------------|----------------------------------------------------|
F|--------------------------------------------------|----------------------------------------------------|
C|--0-----------------------------------------------|--0-------------------------------------------------|
G|--0--------------5--x-x--------------8p5-----3h5--|--0--------------5----x-x--------------8p5-----3h5--|
C|--0--0-0-5p3-0-0----x-x--0-0-5p3-0-0-----0-0------|--0--0-0-5p3-0-0----0-x-x--0-0-5p3-0-0-----0-0------|

PM


D|--------------------------------------------------|----------------------------------------------------|
A|--------------------------------------------------|----------------------------------------------------|
F|--------------------------------------------------|----------------------------------------------------|
C|--0-----------------------------------------------|--0-------------------------------------------------|
G|--0--------------5--x-x--------------8p5-----3h5--|--0--------------5----x-x--------------8p5-----3h5--|
C|--0--0-0-5p3-0-0----x-x--0-0-5p3-0-0-----0-0------|--0--0-0-5p3-0-0----0-x-x--0-0-5p3-0-0-----0-0------|

PM

[Birdge 2 – rhythm] begins after 4 beats


D|-------------------------------------|Play this 3 times
A|-------------------------------------|
F|-------------------------------------|
C|--3--3-3---5--5-5----7--7-7--7--7-7--|
G|--1--1-1---3--3-3----5--5-5--5--5-5--|
C|-------------------------------------|

PM


D|-------------------------------------|4th time
A|-------------------------------------|
F|-------------------------------------|
C|-------------------------------------|
C|--3--3-3---5--5-5----7--7-7--7-------|
G|--1--1-1---3--3-3----5--5-5--5-------|

PM


D|-------------------| Small lick before the chorus
A|-------------------|
F|-------------------|
C|-------------------|
G|------8p5-----3h5--|
C|--0-0-----0-0------|

PM

[Chorus 2 – both guitars] Listen to the song for the excact rhyhtm timing


D|-------------------------------------------------------------------------------|
A|-------------------------------------------------------------------------------|
F|-------------------------------------------------------------------------------|
C|-------------------------------------------------------------------------------|
G|--0--0-0-0-3/108--8-8-8-8--8-8-8-8--10--5--5-5-5-5-5--3--5--5-5-5-5-5-5--3-5--|
C|--0--0-0-0-3/108--8-8-8-8--8-8-8-8--10--5--5-5-5-5-5--3--5--5-5-5-5-5-5--3-5--|
D|-------------------------------------------------------------------------------|
A|-------------------------------------------------------------------------------|
F|-------------------------------------------------------------------------------|
C|-------------------------------------------------------------------------------|
G|--0--0-0-0-3/108--8-8-8-8--8-8-8-8--10--5--5-5-5-5-5--3--5--5-5-5-5-5-5--3-5--|
C|--0--0-0-0-3/108--8-8-8-8--8-8-8-8--10--5--5-5-5-5-5--3--5--5-5-5-5-5-5--3-5--|
D|-------------------------------------------------------------------------------|
A|-------------------------------------------------------------------------------|
F|-------------------------------------------------------------------------------|
C|-------------------------------------------------------------------------------|
G|--0--0-0-0-3/108--8-8-8-8--8-8-8-8--10--5--5-5-5-5-5--3--5--5-5-5-5-5-5--3-5--|
C|--0--0-0-0-3/108--8-8-8-8--8-8-8-8--10--5--5-5-5-5-5--3--5--5-5-5-5-5-5--3-5--|
D|--------------------------------------------------------------------------------|
A|--------------------------------------------------------------------------------|
F|--------------------------------------------------------------------------------|
C|--------------------------------------------------------------------------------|
G|--0--0-0-0-3/108--8-8-8-8--8-8-8-8--10--5--5-5-5-5-5--3--5-555------------3h5--|
C|--0--0-0-0-3/108--8-8-8-8--8-8-8-8--10--5--5-5-5-5-5--3--5-555-0-0-5p3-0-0-----|

PM

[Outro – both guitars]


D|----------------------------------------------------|----------------------------------------------------|
A|----------------------------------------------------|----------------------------------------------------|
F|----------------------------------------------------|----------------------------------------------------|
C|--0-------------------------------------------------|--0-------------------------------------------------|
G|--0--------------5----x-x--------------8p5-----3h5--|--0--------------5----x-x--------------8p5-----3h5--|
C|--0--0-0-5p3-0-0----0-x-x--0-0-5p3-0-0-----0-0------|--0--0-0-5p3-0-0----0-x-x--0-0-5p3-0-0-----0-0------|

PM


D|--------------------|--------------------|-----------------------|------------------------------|
A|--------------------|--------------------|-----------------------|------------------------------|
F|--------------------|--------------------|-----------------------|------------------------------|
C|--0-----------------|--0-----------------|-----0-----------------|--0---------------------------|
G|--0--------------5--|--0--------------5--|-x-x-0--------------5--|--0--------------8p5-----3h5--|
C|--0--0-0-5p3-0-0----|--0--0-0-5p3-0-0----|-x-x-0--0-0-5p3-0-0----|--0--0-0-5p3-0-0-----0-0------|

PM

To play the this songs, including Feed the Machine by Nickelback by ukulele, the most important basic ukulele chords to learn are C chord, D chord, G chord, and Em chord.
These set you up to play a many of songs, and each of them is easy to learn.

If you are searching for Miss You ukulele chords, you already visit to the right site.
You can play versatile instrument Miss You using ukulele or guitar.
This song by Nickelback can also be played by that instruments.
=

Miss You chords has rhythm and included in No Fixed Address (2014) album.
You can also get other musical style, including jazz ukulele chords, country music ukulele chords, pop ukulele chords, world music ukulele chords, and rock ukulele chords here.

Miss You by Nickelback Ukulele Chords


I miss you So, so, I do

I miss you So, so, I do

I miss you So, so, I do

I miss you So, so, I do

I just woke up from a dream today

Time gone by but you still look the same

Felt so real to have you back with me

It’s just too bad it’s just another dream

Give me just one wish…

If I could give it all away

I’d do it just for one more day

I thought I had the time to wait

Now it’s too late to tell you That

I miss you So, so, I do

I miss you So, so, I do (I miss you so much)

I miss you So, so, I do

I miss you So, so, I do (God knows I do)

I miss you So, so, I do

I miss you So, so, I do (I miss you so much)

I miss you So, so, I do

I miss you So, so, I do

After dark, laughin’ in the rain

Silver heart locket on a chain

Well pictures fade and silver turns to grey

But the best of thieves couldn’t take my love away

Give me just one wish…

If I could give it all away

I’d do it just for one more day

Trade it in for one more moment

Tell you what I never told ya

All the things I left unsaid

I meant to say before you left

I thought I had the time to wait

Now it’s too late to tell you

I miss you So, so, I do

I miss you So, so, I do (I miss you so much)

I miss you So, so, I do

I miss you So, so, I do (God knows I do)

I miss you So, so, I do

I miss you So, so, I do (I miss you so much)

I miss you So, so, I do

I miss you So, so, I do

If there was some way, you know I would

I’d do it today, I wish I could

I call out your name, it does no good

I wish I knew what would

I...I miss you so much

God knows I do

I wish my wish was enough

Give me just one wish..

If I could give it all away

I’d do it just for one more day

Trade it in for one more moment

Tell you what I never told ya

All the things I left unsaid

I meant to say before you left

I thought I had the time to wait

Now it’s too late to tell you

I miss you So, so, I do

I miss you So, so, I do (I miss you so much)

I miss you So, so, I do

I miss you So, so, I do (God knows I do)

I miss you So, so, I do

I miss you So, so, I do (I miss you so much)

I miss you So, so, I do

I miss you So.

To play the this songs, including Miss You by Nickelback by ukulele, the most crucial basic ukulele chords to learn are C chord, D chord, G chord, and Em chord.
These set you up to play a many of songs, and each of them is easy to learn.

If you are looking for Someone That You’re With ukulele chords, you already come to the right site.
You can play versatile instrument Someone That You’re With using ukulele or guitar.
This song by Nickelback can also be played by that instruments.
=

Someone That You’re With chords has rhythm and included in All the Right Reasons (2005) album.
You can also find another musical style, including jazz ukulele chords, country music ukulele chords, pop ukulele chords, world music ukulele chords, and rock ukulele chords here.

Someone That You’re With by Nickelback Ukulele Chords

Someone That You’re With
(NICKELBACK)

(I was just messing around one night on my acoustic and figured these chords out. You
play this “Drop D” but, you don’t have to…The acoustic on the last chorus does play it
D” though I think but, you can do what you want)

Verse1:
I reside in 209, you’re in 208
You moved in last friday night
And I just couldn’t wait
So I called across the hall
To ask you out someday
But a lineup formed outside you’re door
And I was way too late

Pre-chorus:
Well I’d rather start off slow
This whole things like some sort of race
Instead of winning what I want
I’m sitting here in second place

Chorus:
Because somewhere the one I wanna be with’s, With somebody else
Oh God I wanna be that someone that you’re with
And I can talk about it all day long till’ I run out of breath
But I still wanna be that someone that you’re with

(I’ve got to be that someont that you’re with)
I’m pacin’ by the phone
Cause I hate to be alone
And if you’re out there with him somewhere
Just about to kiss
God I wanna be that someone that you’re with

Verse2:
I hear you’re favorite songs you sing along with everyday
And I borrow things that I dont need for conversation sake
Last night I heard your key, it hit you’re lock a 4 AM
Instead of being out with me, You must be out with him (Pre-Chorus)
(Chorus2x)

Outro:
And If you’re out there with him somewhere
Just about to kiss
God, I’ve got to be that someone that
I wanna be that someone that
I’ve got to be that someone that you’re with

To play the this songs, including Someone That You’re With by Nickelback by ukulele, the most important basic ukulele chords to learn are C chord, D chord, G chord, and Em chord.
These set you up to play a many of songs, and each of them is easy to master.

If you are searching for Hero ukulele chords, you’ve visit to the right place.
You can play versatile instrument Hero using ukulele or guitar.
This song by Nickelback can also be played by that instruments.
=

Hero chords has rhythm and included in The Long Road (2003) album.
You can also find another musical style, including jazz ukulele chords, country music ukulele chords, pop ukulele chords, world music ukulele chords, and rock ukulele chords here.

Hero by Nickelback Ukulele Chords


This tab is all my own work, so please inform me before
you decide to steal it and take credit for it. Thanks.

TUNED DOWN 1/2 STEP

CHORDS:

——-

eb|–0–| |–0–| |–1–| |–4–| |–6–| |–8—|
Bb|–1–| |–0–| |–1–| |–4–| |–6–| |–8—|
Gb|–2–| |–2–| |–1–| |–4–| |–6–| |–8—|
Db|–2–| |–2–| |–3–| |–6–| |–8–| |–10–|
Ab|–0–| |–0–| |–3–| |–6–| |–8–| |–10–|
Eb|–x–| |–x–| |–1–| |–4–| |–6–| |–8—|

VERSE:

——

I am so high, I can hear heaven
I am so high, I can hear heaven
Oh, But heaven, no heaven don’t hear me

CHORUS:

——-

And they say that a hero can save us
I’m not gonna stand here and wait
We’ll hold on to the wings of the eagles
And watch as we all fly away

VERSE:

——

Someone told me love would only save us
But how can that be? Look what love gave us
A world full of killing and blood spilling
That we’ll never change

CHORUS

——

SOLO:
[—–]

eb|———————————————————————|
Bb|———————————————————————|
Gb|———————————————————————|
Db|———————————————————————|
Ab|-6p5-6p5-6p5—6p5-6p5-6p5———10p8-10p8-10p8-6–10p8-10p8-10p8–|
Eb|————-6————-8–8-10———————————–|
eb|—————————————-|
Bb|—————————————-|
Gb|—————————————-|
Db|—————————————-|
Ab|-10p8-10p8-10p8-6–10p8-10p8-10p8——-|
Eb|———————————-10-8–|

BRIDGE:

——-

Now that the world is ending, it’s love that I’m sending to you
It’s in the love of a hero, and that’s why I fear it won’t do

CHORUS

——

END:
[—-]End on C chord.

——————————————–
———————————————

To play the this songs, including Hero by Nickelback by ukulele, the most crucial basic ukulele chords to learn are C chord, D chord, G chord, and Em chord.
These set you up to play a many of songs, and each of them is easy to learn.

  • 1
  • 2