If you are searching for Lep dan za smrt ukulele chords, you’ve visit to the best site.
You can play versatile instrument Lep dan za smrt using ukulele or guitar.
This song by Niet can also be played by that instruments.
=

Lep dan za smrt chords has rhythm and included in Niet (1993) album.
You can also find other musical genres, including jazz ukulele chords, country music ukulele chords, pop ukulele chords, world music ukulele chords, and rock ukulele chords here.

Lep dan za smrt by Niet Ukulele Chords

INTRO:


e|-----------------|
B|-----------------|
G|-----------------| -4x
D|-9-9-9-9-9-9-9-9-|
A|-7-7-7-7-7-7-7-7-|
E|-----------------|


e|-----------------------------------------|
B|-----------------------------------------|
G|-9------9--------------------------------| -4x
D|-9------9-9------9-11------11-7---7--7-7-|
A|-7------7-9------9-11------11-7---7--7-7-|
E|----------7------7-9-------9--5---5--5-5-|

VERZ: (riff je v vseh verzih enak)


e|---------------------------------------------|
B|---------------------------------------------|
G|-6--6-6--6--9--9-9--9------------------------| -6x
D|-6--6-6--6--9--9-9--9--9--9-9--9--6--6-6--6--|
A|-4--4-4--4--7--7-7--7--9--9-9--9--6--6-6--6--|
E|-----------------------7--7-7--7--4--4-4--4--|

Sonce je sijalo, in sirene so tulile.
Nebo bilo je modro, skoraj brez oblačka.
Pod svetlo rumenim soncem sva tekla po cesti,
Ko naju je objel prvi blisk sva padla

REFREN: (riff je v vseh refrenih enak)
A- -a, pa tako lep dan je bil, preveč lep za smrt. 4x


e|---------------------------------------------|
B|---------------------------------------------|
G|-9--9-9--9-----------------------------------| -4x med refrenom
D|-9--9-9--9--9--9-9--9--7--7-7--7--9--9-9--9--| -4x med solom
A|-7--7-7--7--9--9-9--9--7--7-7--7--9--9-9--9--|
E|------------7--7-7--7--5--5-5--5--7--7-7--7--|

SOLO:


e|-12---12-11-9-----------------------------------------|
B|--------------12---12/14-12-10---10-9-10-12--12/1412-|
G|------------------------------------------------------|
D|------------------------------------------------------|
A|------------------------------------------------------|
E|------------------------------------------------------|
e|-12---12-11-9--------------------------------12------12----12----|
B|--------------12---12/14-12-10---10-9-10-12-----12------12----12-|
G|-----------------------------------------------------------------|
D|-----------------------------------------------------------------|
A|-----------------------------------------------------------------|
E|-----------------------------------------------------------------|
e|----------------------------------12----12-----|
B|---12-10-9-10----9-10-9-10-9--12-----12----12--|
G|-----------------------------------------------|
D|-----------------------------------------------|
A|-----------------------------------------------|
E|-----------------------------------------------|
e|------------------------------12----|
B|---12-10-9-10----9-10-9-10-9-(14)---| ton v oklepaju je v drugem solu (za drugim refrenom)
G|------------------------------------|
D|------------------------------------|
A|------------------------------------|
E|------------------------------------|

VERZ:

Le?ala sva v krvi sredi gorečega
Zraka in ognja, le?ala pod soncem.
Raz?arjenim, rdečim, neresničnim,
Sredi obzorja zavitega v dim,
Sredi prvega dne vojne.

REFREN:
A- -a, pa tako lep dan je bil, preveč lep za smrt. 4x

VERZ:
Moj strah in zadnji dih, drgetanje in jok,
Bli?a se smrt, smrt in ne ljubezen.
Tvoje oči s pogledom tja, kjer je nekoč; sijalo sonce,
So bile mrtve.

REFREN:
A- -a, pa tako lep dan je bil, preveč lep za smrt. 4x

To play the this songs, including Lep dan za smrt by Niet by ukulele, the most important basic ukulele chords to learn are C chord, D chord, G chord, and Em chord.
These set you up to play a ton of songs, and each of them is easy to master.