If you are looking for Steel Meets Steel ukulele chords, you’ve visit to the best site.
You can play versatile instrument Steel Meets Steel using ukulele or guitar.
This song by Onslaught can also be played by that instruments.
=

Steel Meets Steel chords has rhythm and included in Power From Hell (1985) album.
You can also get another musical genres, including jazz ukulele chords, country music ukulele chords, pop ukulele chords, world music ukulele chords, and rock ukulele chords here.

Steel Meets Steel by Onslaught Ukulele Chords

Band: Onslaught
Album: Power From Hell
Song: Steel Meets Steel

Copyright (c) (Under One Flag) (1987)
Version 1.0 – (24/04/06)

Transcribed By: Steve
Email: stephen.elvidge1@ntlworld.com

. – palm mute / – slide up to
– slide down to ~ – vibrato
h – hammer on b – Bend
p – pull off Suffixes for bend
t – tap f – full bend h – half bend
ph – pinched harmonic q – quarter bend t – tap bend
– see comment ^ – Hold bend r release bend
x – Stuccatto ~ – vibrato bend
, – slight palm mute () – ghost note, sustained note
” – tremolo note – harmonic

Tunning E A D G B E
Synth fade in


E-------------------------------------------------------------------|
B-------------------------------------------------------------------|
G-------------------------------------------------------------------|
D-------------------------------------------------------------------|
A-5------------(3)---------------5-------------(3)------------------|
E-3------------(3)---------------3-------------(3)------------------|

To Feedback


E-------------------------------------------------------------------|
B-------------------------------------------------------------------|
G-------------------------------------------------------------------|
D-------------------------------------------------------------------|
A-5------------(3)---------------5-------------(3)----------15-----|
E-3------------(3)---------------3-------------(3)----------15-----|

Main Riff


E--------------------|
B--------------------|
G--------------------|
D--------------------|
A-5-55-5-55-3-33-4/6-|
E-3-33-3-33-1-11-2/4-| Rpt 7 X
E-----------------------|
B-----------------------|
G-----------------------|
D-----------------------|
A-5-55-5-55-4--3---2--|
E-3-33-3-33-2--1---0--|

Rpt Main Riff 3 X


E-----------------------|
B-----------------------|
G-----------------------|
D-----------------------|
A-5-55-5-55-4--3---2--|
E-3-33-3-33-2--1---0--|

Bridge


[---------PM-----------] [---------PM-----------]
E----------------------------------------------------------------|
B----------------------------------------------------------------|
G----------------------------------------------------------------|
D-2-2-2-2-2-2-2-2-2-2-2-2-9875-2-2-2-2-2-2-2-2-2-2-2-2-98-8--|
A-0-0-0-0-0-0-0-0-0-0-0-0-7653-0-0-0-0-0-0-0-0-0-0-0-0-76-6--|
E----------------------------------------------------------------| Rpt

Chorus


E------------------------------------------------------|
B------------------------------------------------------|
G------------------------------------------------------|
D-5-5-5-5-5-5-5-5-5-5-5-5-5-5-5-5----------------------|
A-3-3-3-3-3-3-3-3-3-3-3-3-3-3-3-3-6-6-6-6-5-5-/8-8-8--|
E---------------------------------4-4-4-4-3-3-/6-6-6--| Rpt 2 X
E-----------------|
B-----------------|
G-----------------|
D-5-5-5-5-5-5-5-5-|
A-3-3-3-3-3-3-3-3-|
E-----------------|

Guitar solo

~~~~~~~~~~~~~~~~~~~~~~~ h ~~~~~~~~~~~~~~~~~~~~~~


E-----------------------------------------------------------------|
B-13fb--13fb--13fb--13fb--11-13p11--------------------------------|
G----------------------------------12p10--------------------------|
D----------------------------------------12p10-10--------/11b----|
A-----------------------------------------------------------------|
E-----------------------------------------------------------------|

h ~~~~~~~~~ h h


E----------------------------------/15-17p15-17p15--------------|
B---------------6-8---12-13fb-13fb-----------------17p15-11-13--|
G---------3-5/7-----0-------------------------------------------|
D-3-0-0-5-------------------------------------------------------|
A---------------------------------------------------------------|
E---------------------------------------------------------------|

~~~~~~~~ h h h h h h h h


E-------------------------------------------------------------------|
B-13b-13b--12-13p-12-13p-12-13p-12-13p-12-13p-12-13p-12-13p-12-13p--|
G-------------------------------------------------------------------|
D-------------------------------------------------------------------|
A-------------------------------------------------------------------|
E-------------------------------------------------------------------|

~~~~~~~~~ h ~~~~ h h ~~~~~


E-15fb----r15p12-15-20p17-20p17-20fb-----------------------------|
B------------------------------------11-13p-11-13p-11-13brp11----|
G-------------------------------------------------------------12-|
D----------------------------------------------------------------|
A----------------------------------------------------------------|
E----------------------------------------------------------------|

~~~~ h h ~~~~~~~~~~~~~~~~~~~~~~~~~~~~~~


E-------------------------------------------------------------------|
B-13fb-p11----13p11-13p11------------------------------------------|
G----------12--------------/6b----trem dive-------------------------|
D-------------------------------------------------------------------|
A-------------------------------------------------------------------|
E-------------------------------------------------------------------|

Rpt Main Riff 7 x


E-----------------------|
B-----------------------|
G-----------------------|
D-----------------------|
A-5-55-5-55-4--3---2--|
E-3-33-3-33-2--1---0--|

Rpt Main Riff 3 X


E-----------------------|
B-----------------------|
G-----------------------|
D-----------------------|
A-5-55-5-55-4--3---2--|
E-3-33-3-33-2--1---0--|
[---------PM-----------] [---------PM-----------]
E---------------------------------------------------------------------|
B---------------------------------------------------------------------|
G---------------------------------------------------------------------|
D-2-2-2-2-2-2-2-2-2-2-2-2---5-------2-2-2-2-2-2-2-2-2-2-2-2-----------|
A-0-0-0-0-0-0-0-0-0-0-0-0-7---653-0-0-0-0-0-0-0-0-0-0-0-0-76-5-6p5-|
E---------------------------------------------------------------------|

Rpt

Rpt Chorus

Guitar 1


E[------------------------------------------------------|
B[------------------------------------------------------|
G[------------------------------------------------------|
D[------------------------------------------------------|
A[-5---5-5--5----------------5---5-5--5-----------------|
E[-3---3-3--3----------------3---3-3--3-----------------|

[ Guitar 2
[ ~~~~~~ ~~~~~~~~~~~~


E[------------------------------------------------------|
B[------------------------------------------------------|
G[------------0-6fb-r6p3p0-0----------------------------|
D[------------------------------------------------------|
A[------------------------------------------1-----------|
E[--------------------------------------1/3-------------|

Guitar 1


E[-----------------------------------------------------------------|
B[-----------------------------------------------------------------|
G[-----------------------------------------------------------------|
D[-----------------------------------------------------------------|
A[-5---5-5--5----------------5---5-5--5----------(5)---------------|
E[-3---3-3--3----------------3---3-3--3----------(3)---------------|

[ Guitar 2
[ ~~~~~~~~~~~~~


E[--------------------------------------15-18p15-------------------|
B[------------13fb-------------------------------18-15-18----------|
G[--------------------------------------------------------17-15-15-|
D[-----------------------------------------------------------------|
A[-----------------------------------------------------------------|
E[-----------------------------------------------------------------|

Lead fill

~~~~~~~~~~~~~~~~~~~~~~~~~~~~~


E--------------------------------|
B-13fb---------------------------|
G--------------------------------|
D--------------------------------|
A--------------------------------|
E--------------------------------|

Rpt Main Riff 7 x


E-----------------------|
B-----------------------|
G-----------------------|
D-----------------------|
A-5-55-5-55-4--3---2--|
E-3-33-3-33-2--1---0--|

Rpt Main Riff 3 X


E-----------------------|
B-----------------------|
G-----------------------|
D-----------------------|
A-5-55-5-55-4--3---2--|
E-3-33-3-33-2--1---0--|

Rpt Bridge
Rpt Chorus

Outro guitar solo

~~~~~~~~~~~~~~~~~~ h h h h h


E-18fb----18fb---r------------------------------------------------|
B-----------------------------------------------------------------|
G------------------------------------3-5p-3-5p-3-5p-3-5p-3-5p-3-5-|
D----------------------------------0------------------------------|
A--------------------------6p5------------------------------------|
E----------------------3-4-----3-4--------------------------------|

~~~~~~~~~~~~~~~~~~~~~~ h h h


E----------------------------------15p13-------|
B-5b---r-trem dive--------11-12p11-------15p13-|
G----------------------------------------------|
D----------------------------------------------|
A----------------------------------------------|
E----------------------------------------------|

h h h h ~~~~~~ ~~~~~~~~~~~~~~~~~~~


E--------------------------------15-13-------------------18fb-------|
B-3-5p-3-5p-3-5p-3-5p-3-5b-5b-13-------11-13-11-13fb---r------------|
G-------------------------------------------------------------------|
D-------------------------------------------------------------------|
A-------------------------------------------------------------------|
E-------------------------------------------------------------------|

~~~~~~~~~~


E-----13-13fb--------|
B--15-----------------|
G---------------------|
D---------------------|
A---------------------|
E---------------------|
E-----------------------|
B-----------------------|
G-----------------------|
D-----------------------|
A-5-55-5-55-4--3---2--|
E-3-33-3-33-2--1---0--|

END

To play the this songs, including Steel Meets Steel by Onslaught by ukulele, the most important basic ukulele chords to learn are C chord, D chord, G chord, and Em chord.
These set you up to play a ton of songs, and each of them is easy to master.