If you are searching for Untogether ukulele chords, you’ve come to the right place.
You can play versatile instrument Untogether using ukulele or guitar.
This song by Orianthi can also be played by that instruments.
=

Untogether chords has rhythm and included in Believe (2009) album.
You can also find another musical style, including jazz ukulele chords, country music ukulele chords, pop ukulele chords, world music ukulele chords, and rock ukulele chords here.

Untogether by Orianthi Ukulele Chords

Believe
2009
Submitted by: paramore_fans@yahoo.com

Key: B

Tuning: Standard EADGBe

Chords used:
C#m – x46654
B -[-] x24442
A – x02220
E – 022100

Intro: C#m–F#–B-A-E– x2

Guitar 2: Orianthi Solo

e|————————————6—7—-11–9–7——————|
B|———————————-9—9—9————7h9p7———–|
G|—–4—8–6——4—-8–6–4——————————9-6—8h9-|
D|-4-6—6——-4h6—6——————————————-6—–|
A|———————————————————————–|
E|———————————————————————–|

Verse 1:
Should’ve known better
than to make me believe
Why couldn’t you be
there when I called?
Sitting now together
you just fall a-part
When I needed you to be strong

Refrain 1:
So I’ll make this resolution
That I’ll change our “I’m on my way”

Chorus 1:
Cos I’m done and you’re the one
Yeah you get to be my last disaster
I don’t wanna make this mistake again
And I’m through with you
And you’re not moving up any faster
I don’t wanna wait for you to change
You’ll always gonna stay untogether

Verse 2:
Used to be a good thing
now it’s so gone no
I never wanted no one so bad

Refrain 2:
You didn’t give me no solution
So I just came here to fly for right

(Repeat Chorus 1)

Bridge:
I don’t know how to get to you
And be there through it all
And catch me when I fall
I hope this message
gets through you
And you could prove me wrong
Go on prove me wrong
Alright alright Yeah

Guitar Solo: B-F#-E– x3, F#–A-E

Chorus 2:
Cos I’m done and you’re the one
Yeah you get to be my last disaster
To be so untogether
I don’t wanna make this mistake again
And I’m still with you
And you’re not blowing up any faster
I don’t wanna wait for you to change
A(hold)
You’ll always gonna stay

Outro: C#m-F#–B-A-E-(hold)

To play the most songs, including Untogether by Orianthi by ukulele, the most important basic ukulele chords to learn are C chord, D chord, G chord, and Em chord.
These set you up to play a a lot of songs, and each of them is easy to master.

If you are looking for According to You ukulele chords, you already visit to the right site.
You can play versatile instrument According to You using ukulele or guitar.
This song by Orianthi can also be played by that instruments.
=

According to You chords has rhythm and included in Believe (2009) album.
You can also get another musical genres, including jazz ukulele chords, country music ukulele chords, pop ukulele chords, world music ukulele chords, and rock ukulele chords here.

According to You by Orianthi Ukulele Chords


Believe
2009
Submitted by: paramore_fans@yahoo.com

Key: F

Tuning: Drop D

Chords used: Drop D only
F – 333xxx
C – x355xx
Dm – 000xxx
Bb – 888xxx
Gm – 555xxx
Am – 777xxx

Chords used: for Standard eADGBe
C [-]- x32010
Dm – xx0231
Bb – x13331
Am [-]- x02210

Intro: F–C–

Verse 1:
According to you I’m stupid, I’m
useless I can’t do anything right
According to you I’m difficult hard
to please, forever changing my mind
I’m a mess in a dress can’t show up
on time even if it would save my life
According to you According to you

Mini Solo: Orianthi Shreds like this very fast!!!


e|----------------------------------------12-13-15-17--17-|
B|----------------------------------13-15-----------------|
G|-------------------------12-14-15-----------------------|
D|----------------12-14-15--------------------------------|
A|-------12-13-15-----------------------------------------|
D|-15-17--------------------------------------------------|

Chorus 1:
But according to him I’m beautiful
incredible he can’t get me out of his head
According to him I’m funny irresistible
everything he ever wanted
Everything is opposite I don’t feel like
stopping it Baby tell me what I got to lose
He’s into me for everything
I’m not, according to you

Mini Solo: After Chorus


e|-------------------------------------13-------17--17-|
B|----------------------------------15----15-13--------|
G|-------------------14--14------14--------------------|
D|-------12-15-12-------------15-----------------------|
A|----12----------15-----------------------------------|
D|-15--------------------------------------------------|

Verse 2:
According to you I’m boring
I’m moody and you can’t take me any place
According to you I suck at telling
jokes cause I always give it away
I’m the girl with the worst attention span
you’re the boy who puts up with it
According to you According to you

Mini Solo: Orianthi taps very fast!!!
e|-10h13p10h13p10h13p10h13p10h13p10h13p10h13p10h13h17–17-|


B|--------------------------------------------------------|
G|--------------------------------------------------------|
D|--------------------------------------------------------|
A|--------------------------------------------------------|
D|--------------------------------------------------------|

Chorus 2:
But according to him I’m beautiful
incredible he can’t get me out of his head
According to him I’m funny irresistible
everything he ever wanted
Everything is opposite I don’t feel like
stopping it Baby tell me what I got to lose
He’s into me for everything
I’m not according to you

Bridge:
I need to feel appreciated
like I’m not hated oh no
Why can’t you see me through his eyes?
It’s too bad you’re making me dizzy


Guitar solo: Bb--C--Dm--Gm-- x2

Orianthi: Main Solo
fast riff


e|-17-----------------|--------------------------------------------------------8-|
B|-----17-18-17-18-15-|-15---------------------------------------------------6---|
G|--------------------|-----10p7----10p7---10p7---10p7---7p5---7p5---------------|
D|--------------------|----------10------8------7------5-----3-----3-5-----------|
A|--------------------|------------------------------------------------5---------|
D|--------------------|--------------------------------------------------0h5-----|

fast tapping
e|-10p5h10p5h10p5h10p5h10p5h10p5h10p5h10p5-|


B|-----------------------------------------|
G|-----------------------------------------|
D|-----------------------------------------|
A|-----------------------------------------|
D|-----------------------------------------|

e|-12p7h12p7h12p7h12p7h12p7h12p7h12p7h12p7-|


B|-----------------------------------------|
G|-----------------------------------------|
D|-----------------------------------------|
A|-----------------------------------------|
D|-----------------------------------------|

e|-13p10h13p10h13p10h13p10h13p10h13p10h13p10h13p10-|


B|-------------------------------------------------|
G|-------------------------------------------------|
D|-------------------------------------------------|
A|-------------------------------------------------|
D|-------------------------------------------------|
e|-17p13h18p13h17p13h15p13-17p13h18p13h17p13h15p13-----------|
B|-----------------------------------------------------------|
G|-----------------------------------------------------------|
D|-----------------------------------------------------------|
A|-----------------------------------------------------------|
D|-----------------------------------------------------------|

Verse 3:
According to me you’re stupid
you’re useless
you can’t do anything right

Chorus 3:
But according to him I’m beautiful
incredible he can’t get me out of his head

Mini Solo: at “out of his head”


e|-17-----17----17-------------------------|
B|-----16----16----13h16p13----------------|
G|--------------------------12h14h15-------|
D|-----------------------------------10h12-|
A|-----------------------------------------|
D|-----------------------------------------|

According to him I’m funny irresistible
everything he ever wanted

Mini Solo: at “everything he ever wanted”


e|-22--22p17h18p17----------18--18-|
B|-----------------16p13h16--------|
G|---------------------------------|
D|---------------------------------|
A|---------------------------------|
D|---------------------------------|

Everything is opposite I don’t feel like
stopping it Baby tell me what I got to lose
He’s into me for everything
I’m not according to you you you
according to you you you

Outro:
According to you I’m stupid
you’re useless
I can’t do anything right

To play the most songs, including According to You by Orianthi by ukulele, the most important basic ukulele chords to learn are C chord, D chord, G chord, and Em chord.
These set you up to play a ton of songs, and each of them is easy to master.

If you are searching for Courage ukulele chords, you have visit to the right place.
You can play versatile instrument Courage using ukulele or guitar.
This song by Orianthi can also be played by that instruments.
=

Courage chords has rhythm and included in Believe (II) (2010) album.
You can also find another musical style, including jazz ukulele chords, country music ukulele chords, pop ukulele chords, world music ukulele chords, and rock ukulele chords here.

Courage by Orianthi Ukulele Chords

This should be right, might do the guitar licks/solo for the song later if i feel like it 🙂

Intro:
[G-Em-Am-C]
[G-E-Am-C]
Take all my vicious words
And turn them into something good
Take all my preconceptions
And let the truth be understood

Take all my prized possessions
Leave only what I need
Take all my pieces of doubt
And let me be what’s underneath

Courage is when you’re afraid
But you keep on moving anyway
Courage is when you’re in pain
But you keep on living anyway

We all have excuses why
G Em Am C (GUITAR LICK)
We live in fear something in us dies
Like a bird with broken wings
It’s not how high he flies but the song he sings

Courage is when you’re afraid
But you keep on moving anyway
Courage is when you’re in pain
But you keep on living anyway

SOLO CHORDS F-Em-Am-C-F-Em-Am-C

It’s not how many times you’ve been knocked down
It’s how many times you get back up
Courage is when you’ve lost your way
But you find your strength anyway

F Am Em C (GUITAR LICK)
Courage is when you’re afraid
Courage is a burning faith
Courage is when you make a change
And you keep on living anyway

G-Em-Am-C (GUITAR LICK)

You keep on giving anyway (ooo ooo ooo hey yeah)
It’s when you’re in pain but you keep moving anyway
And you keep on loving anyway

To play the most songs, including Courage by Orianthi by ukulele, the most crucial basic ukulele chords to learn are C chord, D chord, G chord, and Em chord.
These set you up to play a ton of songs, and each of them is easy to master.

If you are looking for God Only Knows ukulele chords, you already visit to the best place.
You can play versatile instrument God Only Knows using ukulele or guitar.
This song by Orianthi can also be played by that instruments.
=

God Only Knows chords has rhythm and included in Believe (2009) album.
You can also get other musical genres, including jazz ukulele chords, country music ukulele chords, pop ukulele chords, world music ukulele chords, and rock ukulele chords here.

God Only Knows by Orianthi Ukulele Chords


Believe
2009
Submitted by: paramore_fans@yahoo.com

Key: G

Tuning: Drop D

Chords used: Drop D Only
G – 555xxx
D/F# – 454xxx
Em – 222xxx
D – 000xxx
C – x355xx
Am – 777xxx
Bm – 999xxx

Chords used: Standard EADGBe
G – 320033
D/F# – 2x023x
Em – 022000
D – xx0232
C – x32010
Am – x02210
Bm – x24432

Intro: G-D/F#-Em-C- x2

Orianthi Solo: Plucking


e|-5-----5-----3-----------5-----5-----3-------|
B|---3-----3-----3---3-0-----3-----3-----3---3-|
G|-----0-----0-----0-----0-----0-----0-----0---|
D|---------------------------------------------|
A|-------------------3-----------------------3-|
D|-5-----4-----2-----------5-----4-----2-------|

Verse 1:
I [D/F#]feel so alone
I [D/F#]Cant seem to
find my out of this lone?
No it [D/F#]dont seem right
I [D/F#]didnt have a chance
to say goodbye

Mini Solo: G-D/F#-Em-C- x2

Orianthi:


e|---10--8-7----10--8-7--7----------|
B|-8----------8------------10--10-8-|
G|----------------------------------|
D|----------------------------------|
A|----------------------------------|
D|----------------------------------|

Verse 2:
In this this [D/F#]silent space
I [D/F#]close my eyes i can hear you say
That [D/F#]it’s alright but my [D/F#]world’s
such an empty place tonight
Cause i know that
its all part of life

Chorus 1:
I wish i had the chance
to say goodbye yeah
i still miss you
so hard to see through
the tears i’ve cried
Yeah i still need you
Cause i dont want to if [D/F#]i dont
have to ever let you go
The longest i’ll hold on
God only knows

Interlude: G-D/F#-Em-C- x2

Verse 3:
As the [D/F#]time goes by
it [D/F#]gets a little
easier to smile
I know i’ll [D/F#]never forget
[D/F#]everything that you said
You said its alright
it’s all part of life

(Repeat Chorus 1)

Interlude: G-D/F#-Em-C-

Bridge:
The hard times will never
fade if you keep looking up
Right around there is a better
place if you believe in love
Cause i know that
its all part of life[D/F#]

Chorus 2:
I wish i had the chance
to say goodbye yeah
i still miss you
so hard to see through
the tears i’ve cried
Yeah i still need you
Cause i dont want to if [D/F#]i dont
have to ever let you go
The longest i’ll hold on
The longest i’ll hold on
The longest i’ll hold on
God only knows


Interlude: G-D/F#-Em-C-G-D/F#-Em-

Outro: while doing solo
God only knows[D/F#]
Ya God only knows[D/F#]
God only knows[D/F#]
C G(hold)
God only knows

To play the most songs, including God Only Knows by Orianthi by ukulele, the most crucial basic ukulele chords to learn are C chord, D chord, G chord, and Em chord.
These set you up to play a a lot of songs, and each of them is easy to master.

If you are searching for Believe ukulele chords, you have visit to the right site.
You can play versatile instrument Believe using ukulele or guitar.
This song by Orianthi can also be played by that instruments.
=

Believe chords has rhythm and included in Believe (2009) album.
You can also find another musical genres, including jazz ukulele chords, country music ukulele chords, pop ukulele chords, world music ukulele chords, and rock ukulele chords here.

Believe by Orianthi Ukulele Chords

2009
Submitted by: paramore_fans@yahoo.com

I promise to add guitar solos in this song soon

Key: Bb

Tuning: Drop D

Chords used: Drop D only
Bb – 888xxx
F – 333xxx
Cm – x355xx
Bb/D – 010xxx
Eb – 111xxx
Gm – 555xxx

Chords used: for Standard EADGBe
Bb – x13331
Cm[-] – x35543
Bb/D – x587xx
Eb – x68886
[-]

Intro:

Piano: Bb

Verse 1:
You made it so easy
To fall I had no fear at all
I saw you beside me
You never saw me there at all
I promised you all this
I made plans thinking this was it
I never imagined I’d find
you and lose myself instead
I just never [Bb/D]pictured it would end

Chorus 1:
And I wanna believe in love
I wanna believe in something bigger
than the two of us (the two of us)
And I wanna breathe again
I wanna go back to the days the
days I had my innocence
I wanna believe again

Verse 2:
He picked up the pieces and
put them back where they belonged
But somethings missing but a
part of me will carry on
I am gonna [Bb/D]learn to trust again

Chorus 2:
And I wanna believe in love
I wanna believe in something bigger
than the two of us (the two of us)
And I wanna breathe again
I wanna go back to the days the
days I had my innocence
I wanna believe again

Main Solo: Cm-Gm-F-Eb– x2

Chorus 3:
And I wanna believe in love
I wanna believe in something bigger
than the two of us (the two of us)
And I wanna breathe again
I wanna go back to the days the
[Bb/D]days I had my innocence

Chorus 4: More Guitar Solos!!!
I wanna believe again
I wanna believe again[Bb/D]
Bb F Cm Bb F Bb(hold)
I wanna believe again

To play the this songs, including Believe by Orianthi by ukulele, the most important basic ukulele chords to learn are C chord, D chord, G chord, and Em chord.
These set you up to play a a lot of songs, and each of them is easy to master.

If you are looking for According to You ukulele chords, you’ve visit to the right site.
You can play versatile instrument According to You using ukulele or guitar.
This song by Orianthi can also be played by that instruments.
=

According to You chords has rhythm and included in Believe (2009) album.
You can also find other musical style, including jazz ukulele chords, country music ukulele chords, pop ukulele chords, world music ukulele chords, and rock ukulele chords here.

According to You by Orianthi Ukulele Chords

Believe
2009
Submitted by: paramore_fans@yahoo.com

Key: F

Tuning: Drop D

Chords used: Drop D only
F – 333xxx
C – x355xx
Dm – 000xxx
Bb – 888xxx
Gm – 555xxx
Am – 777xxx

Chords used: for Standard eADGBe
C [-]- x32010
Dm – xx0231
Bb – x13331
Am [-]- x02210

Intro: F–C–

Verse 1:
According to you I’m stupid, I’m
useless I can’t do anything right
According to you I’m difficult hard
to please, forever changing my mind
I’m a mess in a dress can’t show up
on time even if it would save my life
According to you According to you

Mini Solo: Orianthi Shreds like this very fast!!!


e|----------------------------------------12-13-15-17--17-|
B|----------------------------------13-15-----------------|
G|-------------------------12-14-15-----------------------|
D|----------------12-14-15--------------------------------|
A|-------12-13-15-----------------------------------------|
D|-15-17--------------------------------------------------|

Chorus 1:
But according to him I’m beautiful
incredible he can’t get me out of his head
According to him I’m funny irresistible
everything he ever wanted
Everything is opposite I don’t feel like
stopping it Baby tell me what I got to lose
He’s into me for everything
I’m not, according to you

Mini Solo: After Chorus


e|-------------------------------------13-------17--17-|
B|----------------------------------15----15-13--------|
G|-------------------14--14------14--------------------|
D|-------12-15-12-------------15-----------------------|
A|----12----------15-----------------------------------|
D|-15--------------------------------------------------|

Verse 2:
According to you I’m boring
I’m moody and you can’t take me any place
According to you I suck at telling
jokes cause I always give it away
I’m the girl with the worst attention span
you’re the boy who puts up with it
According to you According to you

Mini Solo: Orianthi taps very fast!!!
e|-10h13p10h13p10h13p10h13p10h13p10h13p10h13p10h13h17–17-|


B|--------------------------------------------------------|
G|--------------------------------------------------------|
D|--------------------------------------------------------|
A|--------------------------------------------------------|
D|--------------------------------------------------------|

Chorus 2:
But according to him I’m beautiful
incredible he can’t get me out of his head
According to him I’m funny irresistible
everything he ever wanted
Everything is opposite I don’t feel like
stopping it Baby tell me what I got to lose
He’s into me for everything
I’m not according to you

Bridge:
I need to feel appreciated
like I’m not hated oh no
Why can’t you see me through his eyes?
It’s too bad you’re making me dizzy


Guitar solo: Bb--C--Dm--Gm-- x2

Orianthi: Main Solo
fast riff


e|-17-----------------|--------------------------------------------------------8-|
B|-----17-18-17-18-15-|-15---------------------------------------------------6---|
G|--------------------|-----10p7----10p7---10p7---10p7---7p5---7p5---------------|
D|--------------------|----------10------8------7------5-----3-----3-5-----------|
A|--------------------|------------------------------------------------5---------|
D|--------------------|--------------------------------------------------0h5-----|

fast tapping
e|-10p5h10p5h10p5h10p5h10p5h10p5h10p5h10p5-|


B|-----------------------------------------|
G|-----------------------------------------|
D|-----------------------------------------|
A|-----------------------------------------|
D|-----------------------------------------|

e|-12p7h12p7h12p7h12p7h12p7h12p7h12p7h12p7-|


B|-----------------------------------------|
G|-----------------------------------------|
D|-----------------------------------------|
A|-----------------------------------------|
D|-----------------------------------------|

e|-13p10h13p10h13p10h13p10h13p10h13p10h13p10h13p10-|


B|-------------------------------------------------|
G|-------------------------------------------------|
D|-------------------------------------------------|
A|-------------------------------------------------|
D|-------------------------------------------------|
e|-17p13h18p13h17p13h15p13-17p13h18p13h17p13h15p13-----------|
B|-----------------------------------------------------------|
G|-----------------------------------------------------------|
D|-----------------------------------------------------------|
A|-----------------------------------------------------------|
D|-----------------------------------------------------------|

Verse 3:
According to me you’re stupid
you’re useless
you can’t do anything right

Chorus 3:
But according to him I’m beautiful
incredible he can’t get me out of his head

Mini Solo: at “out of his head”


e|-17-----17----17-------------------------|
B|-----16----16----13h16p13----------------|
G|--------------------------12h14h15-------|
D|-----------------------------------10h12-|
A|-----------------------------------------|
D|-----------------------------------------|

According to him I’m funny irresistible
everything he ever wanted

Mini Solo: at “everything he ever wanted”


e|-22--22p17h18p17----------18--18-|
B|-----------------16p13h16--------|
G|---------------------------------|
D|---------------------------------|
A|---------------------------------|
D|---------------------------------|

Everything is opposite I don’t feel like
stopping it Baby tell me what I got to lose
He’s into me for everything
I’m not according to you you you
according to you you you

Outro:
According to you I’m stupid
you’re useless
I can’t do anything right

To play the most songs, including According to You by Orianthi by ukulele, the most important basic ukulele chords to learn are C chord, D chord, G chord, and Em chord.
These set you up to play a a lot of songs, and each of them is easy to master.