If you are looking for Blood Money ukulele chords, you have come to the best site.
You can play versatile instrument Blood Money using ukulele or guitar.
This song by Overkill can also be played by that instruments.
=

Blood Money chords has rhythm and included in Horrorscope (1991) album.
You can also get other musical genres, including jazz ukulele chords, country music ukulele chords, pop ukulele chords, world music ukulele chords, and rock ukulele chords here.

Blood Money by Overkill Ukulele Chords


OVERKILL – BLOOD MONEY
(Horrorscope, 1991)

Key
after note vibrato
^ after note heavy vibrato
\ slide down
/ slide up
+ tap
h hammer
p pull
n natural harmonic
s pinching harmonic (squeal)
tremolo pick
t trill
b bend
|-3-| triplet

n number above the tab play the first part then the first finishing part
play the first part a second time and then play the second finishing part
etc.

Riff 1


E -------------------------------------------------------------
B -------------------------------------------------------------
G -------------------------------------------------------------
D -------------------------------------------------------------
A ---------------------------------------------------------2-3-
E -0--0-0-3-2-0-0-0--0-0-3-2-0-0-0--0-0-3-2-0-0-0--0-0-2-3-----

Riff 1A


E ---------------------------------------------------------
B ---------------------------------------------------------
G ---------------------------------------------------------
D ----------------------------------------------7---7---7--
A ----------------------------------------------7---7---7--
E -0--0-0-3-2-0-0-0--0-0-3-2-0-0-0--0-0-3-2-0-0------------

Riff 1B


E -------------------------------------------------------------------------------------------------------------------------
B -------------------------------------------------------------------------------------------------------------------------
G ----------------------------------------------------7----7-7-------------------------------9--------------9--------------
D ----------------------------------------------9-7---7----7-7-------------------------------9--------------9--------------
A ----------------------------------------------7-----5----5-5-------------------------------7--------------7--------------
E -0--0-0-3-2-0-0-0--0-0-3-2-0-0-0--0-0-3-2-0-0-----0----0-----0--0-0-3-2-0-0-0--0-0-3-2-0-0----0-0-0-0-0-0----0-0-0-0-0-0-

Riff 1C


E -----------------------------------------------------------------------------------------------------------------------
B -----------------------------------------------------------------------------------------------------------------------
G -----------------------------------------------------------------------------------------------------------------------
D ---------------------------------------------------------------------------------------------------------------------2-
A ---------------------------------------------------------2-3---------------------------------------------------------2-
E -0--0-0-3-2-0-0-0--0-0-3-2-0-0-0--0-0-3-2-0-0-0--0-0-2-3-----0--0-0-3-2-0-0-0--0-0-3-2-0-0-0--0-0-3-2-0-0-0--0-0-2-3---

Riff 2


E ------------------------------------------------------------------------
B ------------------------------------------------------------------------
G ------------------------------------------------------------------------
D -2----------------5----------------4----------------7--------7---7---7--
A -2----------------5----------------4----------------7--------7---7---7--
E -0----------------3----------------2----------------5--------5---5---5--

Riff 2A


E ------------------------------------------------------
B ------------------------------------------------------
G ------------------------------------------------------
D -2----------------5----------------4----------------7-
A -2----------------5----------------4----------------7-
E -0----------------3----------------2----------------5-

Riff 3


E ------------------------------------------------------------------------------------------------------------------------
B ------------------------------------------------------------------------------------------------------------------------
G ---------------------------------------------------------------------------------------------------------9--------------
D -9---7-------7-------7--7--9---7-------7-------7--7--9---7-------7-------7--7--9---7-------7-------7--7--9--------------
A -7---7---------9-7-7-7--7--7---7---------9-7-7-7--7--7---7---------9-7-7-7--7--7---7---------9-7-7-7--7--7--------------
E ---------0-0-----------------------0-0-----------------------0-0-----------------------0-0------------------0-0-0-0-0-0-
E ----------------
B ----------------
G -9--------------
D -9--------------
A -7--------------
E ----0-0-0-0-0-0-

Riff 3A


E -----------------------------------------------------------------------------------------------------------------
B -----------------------------------------------------------------------------------------------------------------
G -9---7---------------7--7--9---7---------------5--5--7---5---------------5--5--7---5---------------5--5--7---5---
D -9---7-------9-7-----7--7--9---7-------9-7-----5--5--7---5-------7-5-----5--5--7---5-------7-5-----5--5--7---5---
A -7---7-----------7-7-7--7--7---7-----------7-7-5--5--5---5---5-5-----5-5-5--5--7---5---5-5-----5-5-5--5--5---5---
E ---------0-0-----------------------0-0---------------------------------------------------------------------------
E -------------------------------------------------------------------------------------------------
B -------------------------------------------------------------------------------------------------
G -------------------------------------------------------------------------------------------------
D -----7-5-----7--7--9---7---------------7--7--9---7---------------7--7--9---7---------------7--7--
A -5-5-----5-5-7--7--9---7-------9-7-----7--7--9---7-------9-7-----7--7--9---7-------9-7-----7--7--
E -------------7--7--7---7---7-7-----7-7-7--7--7---7---7-7-----7-7-7--7--7---7---7-7-----7-7-7--7--


E --------------------------- -------------------------------------------------------
B --------------------------- -------------------------------------------------------
G --------------------------- -------------------------------------------------------
D -9----9----9----9----9--9-- -----3---3-------5---5-------6---6-------7---7-------2-
A -9----9----9----9----9--9-- -----3---3-------5---5-------6---6-------7---7-------2-
E -7--7-7--7-7--7-7--7-7--7-- -0-0-1---1---0-0-3---3---0-0-4---4---0-0-5---5---0-0-0-

Riff 4


E -------------------------------------------------------------------------------------------------------
B -------------------------------------------------------------------------------------------------------
G --------------------------------------------------------------------------------------7----------------
D -2----------------5----------------4----------------7----------------2----------------7----------------
A -2----------------5----------------4----------------7----------------2----------------5----------------
E -0----------------3----------------2----------------5----------------0---------------------------------
E -----------------------------------
B -----------------------------------
G -----------------------------------
D -7----------------5----------------
A -7----------------5----------------
E -5----------------3----------------

Riff 4A


E ---------------------------------------------------------------------------------------------------------------------
B ---------------------------------------------------------------------------------------------------------------------
G ---------------------------------------------------------------------------------------------------------------------
D -2----------2----------2------5----------5----------5------4----------4----------4------7----------7----------7------
A -2----------2----------2------5----------5----------5------4----------4----------4------7----------7----------7------
E -0--0-0-0-0-0--0-0-0-0-0--0-0-3--3-3-3-3-3--3-3-3-3-3--3-3-2--2-2-2-2-2--2-2-2-2-2--2-2-5--5-5-5-5-5--5-5-5-5-5--5-5-
E ---------------------------------------------------------------------------------------------------------------------------
B ---------------------------------------------------------------------------------------------------------------------------
G ------------------------------7----------7----------7-----------------------------------9---7----------------------------7-
D -2----------2----------2------7----------7----------7------7----------7----------7--------------9----7-----------7---5---7-
A -2----------2----------2------5--5-5-5-5-5--5-5-5-5-5--5-5-7----------7----------7----------------------10-7-------------5-
E -0--0-0-0-0-0--0-0-0-0-0--0-0------------------------------5--5-5-5-5-5--5-5-5-5-5--5-5----------------------10----------5-

Riff 4B


E ---------------------------------------------------------------------------------------------------------------------
B ---------------------------------------------------------------------------------------------------------------------
G ---------------------------------------------------------------------------------------------------------------------
D -2----------2----------2------5----------5----------5------4----------4----------4------7----------7----------7------
A -2----------2----------2------5----------5----------5------4----------4----------4------7----------7----------7------
E -0--0-0-0-0-0--0-0-0-0-0--0-0-3--3-3-3-3-3--3-3-3-3-3--3-3-2--2-2-2-2-2--2-2-2-2-2--2-2-5--5-5-5-5-5--5-5-5-5-5--5-5-
E -----------------------------------------------------------------------------------------------------------------------
B -----------------------------------------------------------------------------------------------------------------------
G ------------------------------7----------7----------7-----------------------------------9---7--------------------------
D -2----------2----------2------7----------7----------7------7----------7----------7--------------9----7-----------7---5-
A -2----------2----------2------5--5-5-5-5-5--5-5-5-5-5--5-5-7----------7----------7----------------------10-7-----------
E -0--0-0-0-0-0--0-0-0-0-0--0-0------------------------------5--5-5-5-5-5--5-5-5-5-5--5-5----------------------10--------

Riff 4C


E ---------------------------------------------------------------------------------------------------------------------
B ---------------------------------------------------------------------------------------------------------------------
G ---------------------------------------------------------------------------------------------------------------------
D -2----------2----------2------5----------5----------5------4----------4----------4------7----------7----------7------
A -2----------2----------2------5----------5----------5------4----------4----------4------7----------7----------7------
E -0--0-0-0-0-0--0-0-0-0-0--0-0-3--3-3-3-3-3--3-3-3-3-3--3-3-2--2-2-2-2-2--2-2-2-2-2--2-2-5--5-5-5-5-5--5-5-5-5-5--5-5-
E ---------------------------------------------------------------------------------------------------------------
B ---------------------------------------------------------------------------------------------------------------
G ------------------------------7----------7----------7-----------------------------------9---7------------------
D -2----------2----------2------7----------7----------7------7----------7----------7--------------9----7---------
A -2----------2----------2------5--5-5-5-5-5--5-5-5-5-5--5-5-7----------7----------7----------------------10--7--
E -0--0-0-0-0-0--0-0-0-0-0--0-0------------------------------5--5-5-5-5-5--5-5-5-5-5--5-5------------------------
E ---------------------------------------------------------------------------------------------------------
B ---------------------------------------------------------------------------------------------------------
G -9---7------------------11---9--------------------11---9--------------------13---11----------------------
D ---------9----7------------------11---9--------------------11---9---------------------13----11-----------
A -----------------10--7---------------------12--9---------------------12--9-----------------------14--11--
E ---------------------------------------------------------------------------------------------------------
E -------------------------------------------------------------------------
B -------------------------------------------------------------------------
G -13---11-----------------------------------------------------------------
D -----------13----11----------------------------------------------------2-
A ---------------------14--11--7-7--6-6--5-5--4-4--3-3---------------2-3-2-
E -----------------------------------------------------3--0--0-0-2-3-----0-

Riff 5


E ---------------------------------------------------------------------------------------------------------
B ---------------------------------------------------------------------------------------------------------
G -----------------------------------------------------7---------------------------------------------------
D -2---5---7----8--7--5--------------------------------7---9---7----5--7--8--------------------------------
A -2---5---7----8--7--5--------------------------------5---9---7----5--7--8--------------------------------
E -0---3---5----6--5--3--0--0-0-3-2-0-0-0--0-0-3-2-0-0-----7---5----3--5--6--0--0-0-3-2-0-0-0--0-0-3-2-0-0-
E ---------------------------------------------------------------------------------------------------------
B ---------------------------------------------------------------------------------------------------------
G -----------------------------------------------------7---------------------9--------------7--------------
D -2---5---7----8--7--5--------------------------------7---9---7----5--7--8--9--------------7--------------
A -2---5---7----8--7--5--------------------------------5---9---7----5--7--8--7--------------5--------------
E -0---3---5----6--5--3--0--0-0-3-2-0-0-0--0-0-3-2-0-0-----7---5----3--5--6-----0-0-0-0-0-0----0-0-0-0-0-0-

Order

Riff 1 x 8
Riff 1A x 2
Riff 1B x 1
Riff 2 x 2
Riff 1B x 1
Riff 2 x 1
Riff 2A x 1
Solo over Riff 1A x 2
Riff 1C x 2
Riff 3 x 2
Riff 4 x 2
Riff 4A x 1
Solo over Riff 1C x 2
Solo over Riff 5 x 2
Riff 4 x 1
Riff 4B x 1
Riff 1 x 4
Riff 3A x 1
Riff 4 x 1
Riff 4C x 1

Tabbed by Radiohater 2003

To play the most songs, including Blood Money by Overkill by ukulele, the most important basic ukulele chords to learn are C chord, D chord, G chord, and Em chord.
These set you up to play a a lot of songs, and each of them is easy to master.

If you are looking for Coma ukulele chords, you’ve visit to the right place.
You can play versatile instrument Coma using ukulele or guitar.
This song by Overkill can also be played by that instruments.
=

Coma chords has rhythm and included in Horrorscope (1991) album.
You can also find other musical style, including jazz ukulele chords, country music ukulele chords, pop ukulele chords, world music ukulele chords, and rock ukulele chords here.

Coma by Overkill Ukulele Chords


OVERKILL – COMA
(Horrorscope, 1991)

Key
after note vibrato
^ after note heavy vibrato
\ slide down
/ slide up
+ tap
h hammer
p pull
n natural harmonic
s pinching harmonic (squeal)
tremolo pick
t trill
b bend
|-3-| triplet

n number above the tab play the first part then the first finishing part
play the first part a second time and then play the second finishing part
etc.

Tune Down 1/2 Step

Riff 1


Eb ---------------------------------------------------------
Bb ------5----5--------4----4--------3----3--------2----2---
Gb ----2----2---2----2----2---2----2----2---2----2----2---2-
Db ---------------------------------------------------------
Ab -0-------------0-------------0-------------0-------------
Eb ---------------------------------------------------------

Riff 1A


Eb ------------------------------------------------------------------------------------------------------------------
Bb ------8----8------8-------8-----8-------8-----8-------8--------8----8--------8----8------8-------8-----8-------8--
Gb ----9----9----------9---9---------9---9---------9---9---9----9----9---9----9----9---9------9---9---------9---9----
Db ---------------8------8--------------------8------8-----------------------------------8------8------8------8------
Ab -----------------------------0------0-----------------------------------------------------------------------------
Eb -0--------------------------------------------------------0-------------0-----------------------------------------
Eb -----------------------------------------------------------------------------------------------------------------
Bb ----8-------8-----8-------8-------8-----8-----8------8-----8-----8-----8-----8-------------------8-------8-------
Gb ------9---9---------9---9-------9-----9-----9------9-----9-----9-----9-----9------------------9-------9-----9----
Db ------------------------------8-----------8------------8-----------8-----------9-7-------------------------------
Ab -0------0------0------0-------------0-----------0------------0-----------0----------10-9-7-----------------------
Eb -----------------------------------------------------------------------------------------0---------------------0-

Riff 2


Eb ----------------------------------------
Bb ----------------------------------------
Gb ----------------------------------------
Db -7-------7-------7-------7-------5--7-8-
Ab -7-------7-------7-------7-------5--7-8-
Eb -5-55-55-5-55-55-5-55-55-5-55-55--------

Riff 2A


Eb ---------------------------------------
Bb ---------------------------------------
Gb ---------------------------------------
Db -7-------7-------7-------7-------8--8--
Ab -7-------7-------7-------7-------8--8--
Eb -5-55-55-5-55-55-5-55-55-5-55-55-6--6--

Riff 2B


Eb -------------------------------------------------------------------------------------------
Bb -------------------------------------------------------------------------------------------
Gb -------------------------------------------------------------------------------------------
Db -7-------7-------7----8-------8-------8----10-------10-------10----11-------11-------11----
Ab -7-------7-------7----8-------8-------8----10-------10-------10----11-------11-------11----
Eb -5-55-55-5-55-55-5-55-6-66-66-6-66-66-6-66-8 -88-88-8 -88-88-8 -88-9 -99-99-9 -99-99-9 -99-
Eb ------------------------------------------------------------------------------------------------
Bb ------------------------------------------------------------------------------------------------
Gb ------------------------------------------------------------------------------------------------
Db -7-------7-------7----8-------8-------8----10-------10-------10----11-------11-------11----7--8-
Ab -7-------7-------7----8-------8-------8----10-------10-------10----11-------11-------11----7--8-
Eb -5-55-55-5-55-55-5-55-6-66-66-6-66-66-6-66-8 -88-88-8 -88-88-8 -88-9 -99-99-9 -99-99-9 -99-5--6-

Riff 3


Eb ---------------------------------------------------------------------------------------
Bb ---------------------------------------------------------------------------------------
Gb -------------------------------------15--14--------------------------------------------
Db -------------------------------------15--14--------------------------------------7--8--
Ab -------------------------------------13--12--------------------------------------7--8--
Eb -00-00-00-00-00-00-00-00-00-00-00-00---------00-00-00-00-00-00-00-00-00-00-00-00-5--6--

Riff 3A


Eb ------------------------------------------------------------------
Bb ------------------------------------------------------------------
Gb -------------------------------------------------------14---14-15-
Db -2-----2-----2-----2-----8--8--2-----2-----2-----2-----14---14-15-
Ab -2-----2-----2-----2-----8--8--2-----2-----2-----2-----12---12-13-
Eb -0-0-0-0-0-0-0-0-0-0-0-0-6--6--0-0-0-0-0-0-0-0-0-0-0-0----0-------

Riff 3B


Eb -------------------------------------------------------------
Bb -------------------------------------------------------------
Gb -------------------------------------------------------------
Db -2-----2-----2-----2-----8--8--2-----2-----2-----2-----7--8--
Ab -2-----2-----2-----2-----8--8--2-----2-----2-----2-----7--8--
Eb -0-0-0-0-0-0-0-0-0-0-0-0-6--6--0-0-0-0-0-0-0-0-0-0-0-0-5--6--

Riff 4

1, 3 2


Eb --------------------------------- --------------------------------- ---------------------------------
Bb --------------------------------- --------------------------------- ---------------------------------
Gb --------------------------------- --------------------------------- ---------------------------------
Db ---4-4-4-4-------5-4-4-4-4-4-4-4- ---4-4-4-4----------------------- ---4-4-4-4-4-4-2-3-2-0---2-0-----
Ab ---4-4-4-4-------5-4-4-4-4-4-4-4- ---4-4-4-4-------3-2-0---2-0----- ---4-4-4-4-4-4---------3-----2-3-
Eb -0-2-2-2-2-3-2-0-3-2-2-2-2-2-2-2- -0-2-2-2-2-3-2-0-------3-----2-3- -0-2-2-2-2-2-2-------------------


Eb ----------------------------------
Bb ----------------------------------
Gb ----------------------------------
Db ---------------3--2-0---2-1-0-----
Ab ----------------------3-------3-2-
Eb -0-2-2-2-2-2-2--------------------

Riff 4A

1, 3


Eb -----------0------------ --------------------------------- ---------------------------------
Bb -------------0---------- --------------------------------- ---------------------------------
Gb ---------------3-------- --------------------------------- ---------------------------------
Db ---4-4-4-4-------------- ---4-4-4-4----------------------- ---4-4-4-4-4-4-2-3-2-0---2-0-----
Ab ---4-4-4-4-------------- ---4-4-4-4-------3-2-0---2-0----- ---4-4-4-4-4-4---------3-----2-3-
Eb -0-2-2-2-2-------------- -0-2-2-2-2-3-2-0-------3-----2-3- -0-2-2-2-2-2-2-------------------


Eb ----------------------------------
Bb ----------------------------------
Gb ----------------------------------
Db ---4-4-4-4-4-4-3--2-0---2-1-0-----
Ab ---4-4-4-4-4-4--------3-------3-2-
Eb -0-2-2-2-2-2-2--------------------

Riff 4B


Eb ----------------------------------------------------------------
Bb ----------------------------------------------------------------
Gb ----------------------------------------------------------------
Db ---4-4-4-4-------5-4-4-4-4-4-4-4---4-4-4-4-------5-4-4-4-4-4-5--
Ab ---4-4-4-4-------5-4-4-4-4-4-4-4---4-4-4-4-------5-4-4-4-4-4-5--
Eb -0-2-2-2-2-3-2-0-3-2-2-2-2-2-2-2-0-2-2-2-2-3-2-0-3-2-2-2-2-2-3--

Riff 5


Eb ------------------
Bb ------------------
Gb ------------------
Db -33-2-0---2-0-----
Ab --------3-----3-2-
Eb ------------------

Riff 5A


Eb -----------------
Bb -----------------
Gb -2-0-------------
Db -----3-2-5-3-2-0-
Ab -----------------
Eb -----------------

Riff 5B


Eb -------------------------------------------------------------------
Bb -------------------------------------------------------------------
Gb -------------------------------------------------------------------
Db -3-2-0---2-0-----3-2-0---2-0-----3-2-0---2-0---------------------2-
Ab -------3-----3-2-------3-----3-2-------3-----3-2-3-2-0---2-0-----2-
Eb -------------------------------------------------------3-----3-2-0-

Riff 5C


Eb ---------------------------------------------------------------------
Bb ---------------------------------------------------------------------
Gb -3-2-0---2-0-----3-2-0---2-0-------5-5-5-5-4-4-4-4-5-5-5-5-4-4-------
Db -------3-----3-2-------3-----3-2-0-3-3-3-3-2-2-2-2-5-5-5-5-4-4-5-4-2-
Ab ---------------------------------------------------3-3-3-3-2-2-5-4-2-
Eb ---------------------------------------------------------------3-2-0-

Riff 6


Eb ----------------------------------------------------------------------------------------------------------------
Bb ----------------------------------------------------------------------------------------------------------------
Gb ----------------------------------------------------------------------------------------------------------------
Db -2--------------8/9-----8----------------2--------------8/9-----8--------8-8-8-8-8-8-8-8-2--------------8/9-----
Ab -2--------------8/9-----8----------------2--------------8/9-----8--------8-8-8-8-8-8-8-8-2--------------8/9-----
Eb -0----------0-0-6/7-0-0-6----------------0----------0-0-6/7-0-0-6--------6-6-6-6-6-6-6-6-0----------0-0-6/7-0-0-
Eb -------------------------------------------------------------
Bb -------------------------------------------------------------
Gb -------------------------------------------------------------
Db -8--------2--2--2--2--2--------------9------8----------------
Ab -8--------2--2--2--2--2--------------9------8----------------
Eb -6--------0--0--0--0--0----------0-0-7--0-0-6----------------

Riff 7


Eb -------------------------------------------
Bb -------------------------------------------
Gb -9-------9-------9-------9-------7----9-10-
Db -9-------9-------9-------9-------7----9-10-
Ab -7-------7-------7-------7-------5----7-8 -
Eb ---00-00---00-00---00-00---00-00---00------

Riff 7A


Eb ------------------------------------------------------------------------------------
Bb ------------------------------------------------------------------------------------
Gb -9-------9-------9---7-------7-------7---10-------10-------10-----------7-------8---
Db -9-------9-------9---7-------7-------7---10-------10-------10---9-------7-------8---
Ab -7-------7-------7---5-------5-------5---8 -------8 -------8 ---9-------5-------6---
Eb ---00-00---00-00---0---00-00---00-00---0----00-00----00-00----0-7-00-00---00-00---0-
Eb ------------------------------------------------------------------------------------------------------------
Bb ------------------------------------------------------------------------------------------------------------
Gb -9-------9-------9---10-------10-------10---12-------12-------12---13-------13-------13---------------------
Db -9-------9-------9---10-------10-------10---12-------12-------12---13-------13-------13---7--------------3--
Ab -7-------7-------7---8 -------8 -------8 ---10-------10-------10---11-------11-------11---7--------------3--
Eb ---00-00---00-00---0----00-00----00-00----0----00-00----00-00----0----00-00----00-00----0-5--------------1--

Order

Riff 1 x 2
Riff 1A x 1
Riff 1 x 2
Riff 2 x 4
Riff 3 x 2
Riff 3A x 1
Riff 3B x 1
Riff 3A x 2
Riff 4/4A x 1
Riff 5 x 1
Riff 5/5A x 1
Riff 2 x 3
Riff 2A x 1
Riff 3A x 1
Riff 3B x 1
Riff 3A x 2
Riff 4/4A x 1
Riff 5 x 1
Riff 5A x 1
Riff 6 x 1
Solo over Riff 7 x 4
Solo over Riff 4B x 2
Solo over Riff 7A x 1
Riff 3A x 1
Riff 3B x 1
Riff 3A x 2
Riff 4/4A x 1
Riff 5 x 1
Riff 5/5A x 1
Riff 2 x 4
Riff 2B x 1
Riff 5B/5C x 1

Tabbed by Radiohater 2003

To play the this songs, including Coma by Overkill by ukulele, the most crucial basic ukulele chords to learn are C chord, D chord, G chord, and Em chord.
These set you up to play a many of songs, and each of them is easy to master.

If you are looking for Who Tends the Fire ukulele chords, you have come to the right place.
You can play versatile instrument Who Tends the Fire using ukulele or guitar.
This song by Overkill can also be played by that instruments.
=

Who Tends the Fire chords has rhythm and included in The Years of Decay (1989) album.
You can also find other musical style, including jazz ukulele chords, country music ukulele chords, pop ukulele chords, world music ukulele chords, and rock ukulele chords here.

Who Tends the Fire by Overkill Ukulele Chords

Metal On!!!!

Guitar
The intro is played at 88

E||——-0—–0—–0—–0—–0—|——–0—–0———0—–0—-||
B||—–0—0—–0—–0—–0—–0-|——0—0—–0—–0—0—–0–||
G||–2——-2—–2—–2—–2—–|—-2——-2——-2——-2—–||
D||———————————-|–3—————2—————||
A||———————————–|———————————–||
E||———————————–|———————————–||

————————–|————————–|————————-|
——–0——–0——–|–0——–0——–0—–|——-0——–0——–|
———-3——–3—–|—–3——–3——–3–|———-3——–3—–|
–2———-2——–2–|——–2——–2——–|–3———-3——–3–|
————————–|————————–|————————-|
————————–|————————–|————————-|

F#5 3x 3x

—————————||—————————–|————————–|
–0——–0——–0——||—————————–|————————–|
—–3——–3——–3–||—————————-|————————–|
——–3——–3——–||—————————-|————————–|
—————————||—2-2-2——–2-2-2——–|–2-2-2——–2-2-2–2-2-|
—————————||—0-0-0–0–0–0-0-0–0–0–|–0-0-0–0–0–0-0-0–0-0-|

2x

—————||—————————–|——————————||
—————||—————————–|——————————||
—————||—————————-|—————————–||
–3————||—————————-|—————————–||
–1————||—2-2-2——–2-2-2——–|–2-2-2——–2-2-2–2-2-2—||
—————||—0-0-0–0–0–0-0-0–0–0–|–0-0-0–0–0–0-0-0–0-0-0—||
—————————-|—————————–|——————-|——|
—————————-|—————————–|——————-|——|
—————————-|—————————–|——————-|——|
—————————-|—————————–|——————-|——|
–2-2———-2-2———-|–2-2————-2-2-2-2—-|–2—————-|—-4-|
–0-0-0–0–0–0-0-0–0–0–|–0-0-0–0–0–0–0-0-0-0-0–|–0—————-|—-2-|
——————-|——————||
——————-|——————||
——————-|——————||
——————-|——————||
–3—————-|——————||
–1—————-|——————||
|———————————|——————-|——————————|
|———————————|——————-|——————————|
|———————————|–1—————-|——————————|
|———————————|–2—————-|——————————|
|–8—-7———-7———7—-|–2—————-|–8—-7———-7———7-|
|————10———7———|–0—————-|————10———7——|
———————|———————————|—————————–|
———————|———————————|—————————–|
———————|———————————|—————————–|
–3—————–|———————————|——————————|
–3——————|–8—-7———-7———7—-|–8—-7———-7——–7-|
–1——–17——-|————10———7———|————10———7—–|
———————————|———————————-|
———————————|———————————-|
———————————|–10—-9———-9———9—-|
———————————|————-12———9———|
–8—-7———-7———7—-|–8—–7———-7———7—-|
————10———7———|————-10———7———|
————————————–|–13—-12———-12———-12—-|
–13—-12———-12———-12—-|————–15———-12———-|
————–14———-11———-|————————————–|
————————————–|————————————–|
–8—–7———–7———–7—–|–8—–7———–7———–7—–|
————–10———-7———–|————–10———-7———–|
————————–|————————–|————————–|
————————–|————————–|————————–|
–4–4–4–4–4–4–4–4–|–4–4–4–4–4–5—–5–|–4–4–4–4–4–4–4–4–|
–2–2–2–2–2–2–2–2–|–2–2–2–2–2–3–3–3–|–2–2–2–2–2–2–2–2–|
–2–2–2–2–2–2–2–2–|–2–2–2–2–2–3—–3–|–2–2–2–2–2–2–2–2–|
–0–0–0–0–0–0–0–0–|–0–0–0–0–0–1–1–1–|–0–0–0–0–0–0–0–0–|
————————–|————————–|————————–|
————————–|————————–|————————–|
–4–4–4–4–4–5—–5–|–5—–4–4–4–4–4–4–|–4–4–4–4–4–5—–5–|
–2–2–2–2–2–3–3–3–|–3—–2–2–2–2–2–2–|–2–2–2–2–2–3–3–3–|
–2–2–2–2–2–3—–3–|—–2–2–2–2–2–2–2–|–2–2–2–2–2–3—–3–|
–0–0–0–0–0–1–1–1–|–1—–0–0–0–0–0–0–|–0–0–0–0–0–1–1–1–|
————————–|————————–||
————————–|————————–||
–4–4–4–4–4–4–4–4–|–4–4–4–4–4–5—–5–||
–2–2–2–2–2–2–2–2–|–2–2–2–2–2–3–3–3–||
–2–2–2–2–2–2–2–2–|–2–2–2–2–2–3—–3–||
–0–0–0–0–0–0–0–0–|–0–0–0–0–0–1–1–1–||
|—————————|——————————-|————————|
|—————————|——————————-|————————|
|————————–|——————————-|————————|
|——–5——–7——–|–8——–7——–5/-7–5—-|——–5——–7——|
|—7–7—–7–7—–7–7–|—–7–7—–7–7————-|–7–7—–7–7—–7-7-|
|—————————|——————————-|————————|

3x

——————————-||———————————–|
——————————-||———————————–|
——————–7———||———-12———-14———-|
–8——–7——–5—-7—-||–14–14–5—14–14–7—14–14–|
—–7–7—–7–7——-5—–||—7—7——-7—7——-7—7—|
——————————-||———————————–|
—————————————-|———————————-|
—————————————-|———————————-|
–15———-14———-12h-14–12—-|———-12———-14———-|
–8—14–14–7—14–14–5h–7—5—–|–14–14–5—14–14–7—14–14–|
——7—7——-7—7—————–|–7—7——-7—7——-7—7—|
—————————————-|———————————-|
——————————|———————————-|
——————————|———————————-|
–14b—14–12–14–12——–|———-12———-14———-|
–7b—-7—5—7—5—14~—|–14–14–5—14–14–7—14–14–|
————————7~—-|–7—7——-7—7——-7—7—|
——————————|———————————-|
—————————————-|———————————-|
—————————————-|———————————-|
–15———-14———-12–14–12~—|———-12———-14———-|
–8—14–14–7—14–14–5h–7—5~—-|–14–14–5—14–14–7—14–14–|
——7—7——-7—7—————–|–7—7——-7—7——-7—7—|
—————————————-|———————————-|

2x

—————————||———————-|———————-|
—————————||———————-|———————-|
–14b—14–12–14~——-||–14b—14–12–14—-|–14b—14–12–14—-|
–7b—-7—5—7~——–||–7b—-7—5—7—–|–7b—-7—5—7—–|
—————————||———————-|———————-|
—————————||———————-|———————-|
——————————|——————||
——————————|——————||
–14b—14–12–14–12——–|——————||
–7b—-7—5—7—5—14—-|——————||
————————7—–|——————||
——————————|——————||

To play the this songs, including Who Tends the Fire by Overkill by ukulele, the most crucial basic ukulele chords to learn are C chord, D chord, G chord, and Em chord.
These set you up to play a many of songs, and each of them is easy to master.

If you are searching for Who Tends the Fire ukulele chords, you have come to the right place.
You can play versatile instrument Who Tends the Fire using ukulele or guitar.
This song by Overkill can also be played by that instruments.
=

Who Tends the Fire chords has rhythm and included in The Years of Decay (1989) album.
You can also find other musical style, including jazz ukulele chords, country music ukulele chords, pop ukulele chords, world music ukulele chords, and rock ukulele chords here.

Who Tends the Fire by Overkill Ukulele Chords


Metal On!!!!

Guitar
The intro is played at 88

E||——-0—–0—–0—–0—–0—|——–0—–0———0—–0—-||
B||—–0—0—–0—–0—–0—–0-|——0—0—–0—–0—0—–0–||
G||–2——-2—–2—–2—–2—–|—-2——-2——-2——-2—–||
D||———————————-|–3—————2—————||
A||———————————–|———————————–||
E||———————————–|———————————–||

————————–|————————–|————————-|
——–0——–0——–|–0——–0——–0—–|——-0——–0——–|
———-3——–3—–|—–3——–3——–3–|———-3——–3—–|
–2———-2——–2–|——–2——–2——–|–3———-3——–3–|
————————–|————————–|————————-|
————————–|————————–|————————-|

F#5 3x 3x

—————————||—————————–|————————–|
–0——–0——–0——||—————————–|————————–|
—–3——–3——–3–||—————————-|————————–|
——–3——–3——–||—————————-|————————–|
—————————||—2-2-2——–2-2-2——–|–2-2-2——–2-2-2–2-2-|
—————————||—0-0-0–0–0–0-0-0–0–0–|–0-0-0–0–0–0-0-0–0-0-|

2x

—————||—————————–|——————————||
—————||—————————–|——————————||
—————||—————————-|—————————–||
–3————||—————————-|—————————–||
–1————||—2-2-2——–2-2-2——–|–2-2-2——–2-2-2–2-2-2—||
—————||—0-0-0–0–0–0-0-0–0–0–|–0-0-0–0–0–0-0-0–0-0-0—||
—————————-|—————————–|——————-|——|
—————————-|—————————–|——————-|——|
—————————-|—————————–|——————-|——|
—————————-|—————————–|——————-|——|
–2-2———-2-2———-|–2-2————-2-2-2-2—-|–2—————-|—-4-|
–0-0-0–0–0–0-0-0–0–0–|–0-0-0–0–0–0–0-0-0-0-0–|–0—————-|—-2-|
——————-|——————||
——————-|——————||
——————-|——————||
——————-|——————||
–3—————-|——————||
–1—————-|——————||
|———————————|——————-|——————————|
|———————————|——————-|——————————|
|———————————|–1—————-|——————————|
|———————————|–2—————-|——————————|
|–8—-7———-7———7—-|–2—————-|–8—-7———-7———7-|
|————10———7———|–0—————-|————10———7——|
———————|———————————|—————————–|
———————|———————————|—————————–|
———————|———————————|—————————–|
–3—————–|———————————|——————————|
–3——————|–8—-7———-7———7—-|–8—-7———-7——–7-|
–1——–17——-|————10———7———|————10———7—–|
———————————|———————————-|
———————————|———————————-|
———————————|–10—-9———-9———9—-|
———————————|————-12———9———|
–8—-7———-7———7—-|–8—–7———-7———7—-|
————10———7———|————-10———7———|
————————————–|–13—-12———-12———-12—-|
–13—-12———-12———-12—-|————–15———-12———-|
————–14———-11———-|————————————–|
————————————–|————————————–|
–8—–7———–7———–7—–|–8—–7———–7———–7—–|
————–10———-7———–|————–10———-7———–|
————————–|————————–|————————–|
————————–|————————–|————————–|
–4–4–4–4–4–4–4–4–|–4–4–4–4–4–5—–5–|–4–4–4–4–4–4–4–4–|
–2–2–2–2–2–2–2–2–|–2–2–2–2–2–3–3–3–|–2–2–2–2–2–2–2–2–|
–2–2–2–2–2–2–2–2–|–2–2–2–2–2–3—–3–|–2–2–2–2–2–2–2–2–|
–0–0–0–0–0–0–0–0–|–0–0–0–0–0–1–1–1–|–0–0–0–0–0–0–0–0–|
————————–|————————–|————————–|
————————–|————————–|————————–|
–4–4–4–4–4–5—–5–|–5—–4–4–4–4–4–4–|–4–4–4–4–4–5—–5–|
–2–2–2–2–2–3–3–3–|–3—–2–2–2–2–2–2–|–2–2–2–2–2–3–3–3–|
–2–2–2–2–2–3—–3–|—–2–2–2–2–2–2–2–|–2–2–2–2–2–3—–3–|
–0–0–0–0–0–1–1–1–|–1—–0–0–0–0–0–0–|–0–0–0–0–0–1–1–1–|
————————–|————————–||
————————–|————————–||
–4–4–4–4–4–4–4–4–|–4–4–4–4–4–5—–5–||
–2–2–2–2–2–2–2–2–|–2–2–2–2–2–3–3–3–||
–2–2–2–2–2–2–2–2–|–2–2–2–2–2–3—–3–||
–0–0–0–0–0–0–0–0–|–0–0–0–0–0–1–1–1–||
|—————————|——————————-|————————|
|—————————|——————————-|————————|
|————————–|——————————-|————————|
|——–5——–7——–|–8——–7——–5/-7–5—-|——–5——–7——|
|—7–7—–7–7—–7–7–|—–7–7—–7–7————-|–7–7—–7–7—–7-7-|
|—————————|——————————-|————————|

3x

——————————-||———————————–|
——————————-||———————————–|
——————–7———||———-12———-14———-|
–8——–7——–5—-7—-||–14–14–5—14–14–7—14–14–|
—–7–7—–7–7——-5—–||—7—7——-7—7——-7—7—|
——————————-||———————————–|
—————————————-|———————————-|
—————————————-|———————————-|
–15———-14———-12h-14–12—-|———-12———-14———-|
–8—14–14–7—14–14–5h–7—5—–|–14–14–5—14–14–7—14–14–|
——7—7——-7—7—————–|–7—7——-7—7——-7—7—|
—————————————-|———————————-|
——————————|———————————-|
——————————|———————————-|
–14b—14–12–14–12——–|———-12———-14———-|
–7b—-7—5—7—5—14~—|–14–14–5—14–14–7—14–14–|
————————7~—-|–7—7——-7—7——-7—7—|
——————————|———————————-|
—————————————-|———————————-|
—————————————-|———————————-|
–15———-14———-12–14–12~—|———-12———-14———-|
–8—14–14–7—14–14–5h–7—5~—-|–14–14–5—14–14–7—14–14–|
——7—7——-7—7—————–|–7—7——-7—7——-7—7—|
—————————————-|———————————-|

2x

—————————||———————-|———————-|
—————————||———————-|———————-|
–14b—14–12–14~——-||–14b—14–12–14—-|–14b—14–12–14—-|
–7b—-7—5—7~——–||–7b—-7—5—7—–|–7b—-7—5—7—–|
—————————||———————-|———————-|
—————————||———————-|———————-|
——————————|——————||
——————————|——————||
–14b—14–12–14–12——–|——————||
–7b—-7—5—7—5—14—-|——————||
————————7—–|——————||
——————————|——————||

To play the most songs, including Who Tends the Fire by Overkill by ukulele, the most important basic ukulele chords to learn are C chord, D chord, G chord, and Em chord.
These set you up to play a ton of songs, and each of them is easy to master.