If you are looking for Go ukulele chords, you’ve come to the right place.
You can play versatile instrument Go using ukulele or guitar.
This song by Pearl Jam can also be played by that instruments.
=

Go chords has rhythm and included in Vs. (1993) album.
You can also find other musical genres, including jazz ukulele chords, country music ukulele chords, pop ukulele chords, world music ukulele chords, and rock ukulele chords here.

Go by Pearl Jam Ukulele Chords


G1 is open-D tuning — DADF#AD (low to high)
G2 is dropped-d — DADGBE
G3 is standard


-|---|---|---|-------------------------------------------------------------|--
-|---|---|---|-------------------------------------------------------------|--
-|---|---|---|-------------------------------------------------------------|--
-|---|---|---|-------------------------------------------------------------|--
-|---|---|---|--------------2p0----------------2p0------------------2p0----|--
-|---|---|---|-0-0-0-0-2-3------3/--0-0-0-2-3------3/--0-0-0-0-2-3------3/-|--

G1 Bass/Drums with Fill 1


-|----------------------------------|-----------------------------------------
-|-5-5-5-5-7-7-7-8-8-8-10-8h10p85--|-----------------------------------------
-|----------------------------------|-----------------------------------------
-|----------------------------------|-----------------------------------------
-|----------------------------------|-----------------------------------------
-|----------------------------------|-----------------------------------------

Fill 1 (G2)


-|---------------|----------------------|---------------|---------------------
-|---------------|----------------------|---------------|---------------------
-|---------------|----------------------|---------------|---------------------
-|---------------|----------------------|---------------|---------------------
-|---------------|--------------2p0-----|---------------|---------------------
-|---------------|-0-0-0-0-2-3------3/--|-0--0-0-2--3---|---------------------

G1 (bass) 4x


-|-------------------------|--------------------------------------------------
-|-5--5--5--4--5--5--5--4--|--------------------------------------------------
-|-x--x--x--x--x--x--x--x--|--------------------------------------------------
-|-x--x--x--x--x--x--x--x--|--------------------------------------------------
-|-5--5--5--4--5--5--5--4--|--------------------------------------------------
-|-------------------------|--------------------------------------------------


-|-------------------------|--------------------------------------------------
-|-------------------------|--------------------------------------------------
-|-7--7--7--6--7--7--7--6--|--------------------------------------------------
-|-x--x--x--x--x--x--x--x--|--------------------------------------------------
-|-5--5--5--4--5--5--5--4--|--------------------------------------------------
-|-------------------------|--------------------------------------------------


-|----------------------|-----------------------|-----------------------|-----
-|----------------------|-----------------------|-----------------------|-----
-|----------------------|-----------------------|-----------------------|-----
-|----------------------|-----------------------|-----------------------|-----
-|--------------2p0-----|---------------2p0-----|---------------2p0-----|-----
-|-0-0-0-0-2-3------3/--|-0-0-0-0-2-3-------3/--|-0-0-0-0-2-3-------3/--|-----

G1+G2 2x Oh please don’t go out on me


-|-----------------------|-----------------------|----------------------------
-|-----------------------|-----------------------|----------------------------
-|-----------------------|-----------------------|----------------------------
-|-----------------------|-----------------------|----------------------------
-|---------------2p0-----|---------------2p0-----|----------------------------
-|-0-0-0-0-2-3-------3/--|-0-0-0-0-2-3-------3/--|----------------------------

G1+G2 Don’t go on me now never acted up before


-|-----------------------|-----------------------|----------------------------
-|-----------------------|-----------------------|----------------------------
-|-----------------------|-----------------------|----------------------------
-|-----------------------|-----------------------|----------------------------
-|---------------2p0-----|---------------2p0-----|----------------------------
-|-0-0-0-0-2-3-------3/--|-0-0-0-0-2-3-------3/--|----------------------------

G1+G2 Don’t go on me now I swear I never took it for granted


-|-----------------------|-----------------------|-----------------------|----
-|-----------------------|-----------------------|-----------------------|----
-|-----------------------|-----------------------|-----------------------|----
-|-----------------------|-----------------------|-----------------------|----
-|---------------2p0-----|---------------2p0-----|---------------2p0-----|----
-|-0-0-0-0-2-3-------3/--|-0-0-0-0-2-3-------3/--|-0-0-0-0-2-3-------3/--|----

G1+G2 Just thought of it now suppose I abused you just passing it on


-|--------------------------------|--------------------------------|----------
-|-5--5--54--4---5--5--5--4--2p0-|-5--5--54--4---5--5--5--4--2p0-|----------
-|-x--x--x----x---x--x--x--x--x---|-x--x--x----x---x--x--x--x--x---|----------
-|-x--x--x----x---x--x--x--x--x---|-x--x--x----x---x--x--x--x--x---|----------
-|-5--5--54--4---5--5--5--4--2p0-|-5--5--54--4---5--5--5--4--2p0-|----------
-|--------------------------------|--------------------------------|----------

G1 Go fk


-|--------------------------------|--------------------------------|----------
-|--------------------------------|--------------------------------|----------
-|-7--7--76--6---7--7--7--6--42-|-7--7--76--6---7--7--7--6--42-|----------
-|-x--x--x----x---x--x--x--x--x---|-x--x--x----x---x--x--x--x--x---|----------
-|-5--5--54--4---5--5--5--4--2-|-5--5--54--4---5--5--5--4--2-|----------
-|--------------------------------|--------------------------------|----------


-|--------------------------|-----------------------|-----------------------|-
-|--------------------------|-----------------------|-----------------------|-
-|--------------------------|-----------------------|-----------------------|-
-|--------------------------|-----------------------|-----------------------|-
-|------------------2p0-----|---------------2p0-----|---------------2p0-----|-
-|----0-0-0-0-2-3-------3/--|-0-0-0-0-2-3-------3/--|-0-0-0-0-2-3-------3/--|-

G1+G2 Once fastened servile now you’re getting sharp moving oh so swiftly


-|--------------------------|-----------------------|-----------------------|-
-|--------------------------|-----------------------|-----------------------|-
-|--------------------------|-----------------------|-----------------------|-
-|--------------------------|-----------------------|-----------------------|-
-|------------------2p0-----|---------------2p0-----|---------------2p0-----|-
-|----0-0-0-0-2-3-------3/--|-0-0-0-0-2-3-------3/--|-0-0-0-0-2-3-------3/--|-

G1+2 With such disarm I pulled the covers over him shoulda pulled the alarm


-|---------------------------|------------------------|-----------------------
-|---------------------------|------------------------|-----------------------
-|---------------------------|------------------------|-----------------------
-|---------------------------|------------------------|-----------------------
-|-------------------2p0-----|----------------2p0-----|-----------------------
-|-----0-0-0-0-2-3-------3/--|--0-0-0-0-2-3-------3/--|-----------------------

G1+G2 Turned to my nemesis a full on fking god


-|--------------------------------|--------------------------------|----------
-|-5--5--54--4---5--5--5--4--2p0-|-5--5--54--4---5--5--5--4--2p0-|----------
-|-x--x--x----x---x--x--x--x--x---|-x--x--x----x---x--x--x--x--x---|----------
-|-x--x--x----x---x--x--x--x--x---|-x--x--x----x---x--x--x--x--x---|----------
-|-5--5--54--4---5--5--5--4--2p0-|-5--5--54--4---5--5--5--4--2p0-|----------
-|--------------------------------|--------------------------------|----------

G1 No time


-|--------------------------------|--------------------------------|----------
-|--------------------------------|--------------------------------|----------
-|-7--7--76--6---7--7--7--6--42-|-7--7--76--6---7--7--7--6--42-|----------
-|-x--x--x----x---x--x--x--x--x---|-x--x--x----x---x--x--x--x--x---|----------
-|-5--5--54--4---5--5--5--4--2-|-5--5--54--4---5--5--5--4--2-|----------
-|--------------------------------|--------------------------------|----------


-|--------------------------------|--------------------------------|----------
-|-5--5--54--4---5--5--5--4--2p0-|-5--5--54--4---5--5--5--4--2p0-|----------
-|-x--x--x----x---x--x--x--x--x---|-x--x--x----x---x--x--x--x--x---|----------
-|-x--x--x----x---x--x--x--x--x---|-x--x--x----x---x--x--x--x--x---|----------
-|-5--5--54--4---5--5--5--4--2p0-|-5--5--54--4---5--5--5--4--2p0-|----------
-|--------------------------------|--------------------------------|----------

G1 Such burn


-|--------------------------------|--------------------------------|----------
-|--------------------------------|--------------------------------|----------
-|-7--7--76--6---7--7--7--6--42-|-7--7--76--6---7--7--7--6--42-|----------
-|-x--x--x----x---x--x--x--x--x---|-x--x--x----x---x--x--x--x--x---|----------
-|-5--5--54--4---5--5--5--4--2-|-5--5--54--4---5--5--5--4--2-|----------
-|--------------------------------|--------------------------------|----------


-|--12------12------12----------12----|--12------12------12----------12----|--
-|-----12-------12-----12-12h15----15-|-----15------15------15-12h15----12-|--
-|------------------------------------|------------------------------------|--
-|------------------------------------|------------------------------------|--
-|------------------------------------|------------------------------------|--
-|------------------------------------|------------------------------------|--

G1 Please don’t go on me don’t go on me


-|------------------------------------|------------------------------------|--
-|------------------------------------|------------------------------------|--
-|------------------------------------|------------------------------------|--
-|----------------------8--8--8--8--8-|----------------------8--8--8--8--8-|--
-|--------------2p0-----8--8--8--8--8-|--------------2p0-----8--8--8--8--8-|--
-|-0-0-0-0-2-3------3/--8--8--8--8--8-|-0-0-0-0-2-3------3/--8--8--8--8--8-|--


-|--12------12------12----------12----|--12------12------12----------12----|--
-|-----12------12------12-12h15----15-|-----15------15------15-12h15----12-|--
-|------------------------------------|------------------------------------|--
-|------------------------------------|------------------------------------|--
-|------------------------------------|------------------------------------|--
-|------------------------------------|------------------------------------|--

G1 Don’t go on me don’t go on me


-|------------------------------------|------------------------------------|--
-|------------------------------------|------------------------------------|--
-|------------------------------------|------------------------------------|--
-|----------------------8--8--8--8--8-|----------------------8--8--8--8--8-|--
-|--------------2p0-----8--8--8--8--8-|--------------2p0-----8--8--8--8--8-|--
-|-0-0-0-0-2-3------3/--8--8--8--8--8-|-0-0-0-0-2-3------3/--8--8--8--8--8-|--


-|-12----12----12-----11-----10-------|---------------------------------------
-|----12----12----12-----11-----10---|---------------------------------------
-|------------------------------------|---------------------------------------
-|------------------------------------|---------------------------------------
-|------------------------------------|---------------------------------------
-|------------------------------------|---------------------------------------


-|------------------------------------|---------------------------------------
-|------------------------------------|---------------------------------------
-|------------------------------------|---------------------------------------
-|----------------------8--8--8--8--8-|---------------------------------------
-|--------------2p0-----8--8--8--8--8-|---------------------------------------
-|-0-0-0-0-2-3------3/--8--8--8--8--8-|---------------------------------------


-|---------------------|-------------------------------|----------------------
-|---------------------|-------------------------------|----------------------
-|---------------------|-------------------------------|----------------------
-|---------------------|-------------------------------|----------------------
-|--------------2p0----|---------------------2p0-------|----------------------
-|-0-0-0-0-2-3------3/-|-0--0--0--0--2--3---------3/---|----------------------


-|-15b17---------------|-15b17-15b17-15b17-15b17-15b17-|----------------------
-|---------------------|-------------------------------|----------------------
-|---------------------|-------------------------------|----------------------
-|---------------------|-------------------------------|----------------------
-|---------------------|-------------------------------|----------------------
-|---------------------|-------------------------------|----------------------

G2 (with wah)


-|-------------------------------------------------------------------------|--
-|-------------------------------------------------------------------------|--
-|-------------------------------------------------------------------------|--
-|-------------------------------------------------------------------------|--
-|---------------------------------------------2---p---0-------------------|--
-|-0------0------0------0------2------3--------------------3/--------------|--


-|-15b17r15-13----13-------------------10----------------------------------|--
-|-------------15----15-13h15p13-10-13----13-10-13-------------------------|--
-|-------------------------------------------------12b13r12-10----10-12p10-|--
-|-------------------------------------------------------------12----------|--
-|-------------------------------------------------------------------------|--
-|-------------------------------------------------------------------------|--


-|---------------------------------------------------------|------------------
-|---------------------------------------------------------|------------------
-|---------------------------------------------------------|------------------
-|---------------------------------------------------------|------------------
-|----------------------------------2--p--0----------------|------------------
-|-0----0----0----0----2----3----------------3/------------|------------------


-|---------------------------------------------------------|------------------
-|---------------------------------------------------------|------------------
-|----12p10----10-12-b13r12-10----10-12-b13r12-10----10-12-|------------------
-|-12-------12-----------------12-----------------12-------|------------------
-|---------------------------------------------------------|------------------
-|---------------------------------------------------------|------------------


-|------------------------------------------------------------|---------------
-|------------------------------------------------------------|---------------
-|------------------------------------------------------------|---------------
-|------------------------------------------------------------|---------------
-|--------------------------------------2--p--0---------------|---------------
-|-0-----0-----0-----0-----2-----3----------------3/----------|---------------


-|-------------------10----------10----------10-13------------|---------------
-|-------10-13-10-------13-10-------13-10---------10----------|---------------
-|-12b13----------12----------12----------12--------12-10--10-|---------------
-|-------------------------------------------------------12---|---------------
-|------------------------------------------------------------|---------------
-|------------------------------------------------------------|---------------


-|------------------------------------------------------------|---------------
-|------------------------------------------------------------|---------------
-|------------------------------------------------------------|---------------
-|------------------------------------------------------------|---------------
-|--------------------------------------2--p--0---------------|---------------
-|-0-----0-----0-----0-----2-----3----------------3/----------|---------------


-|------------------------------------------------------------|---------------
-|----10h13p10------------------------------------------------|---------------
-|-12----------12-12-12-10-12-10----10-10b11-10---------------|---------------
-|-------------------------------12-------------12-10-12-10---|---------------
-|---------------------------------------------------------12-|---------------
-|------------------------------------------------------------|---------------


-|-------------------------------------|--------------------------------------
-|-------------------------------------|--------------------------------------
-|-------------------------------------|--------------------------------------
-|-------------------------------------|--------------------------------------
-|--------------------------2p0--------|--------------------------------------
-|-0---0---0---0---2---3--------3/-----|--------------------------------------


-|-------------------------------------|--------------------------------------
-|-------------------------------------|--------------------------------------
-|-------------------------------------|--------------------------------------
-|-10h12-10-10-------------------------|--------------------------------------
-|-------------12-10-8-10b11r10-8-10p8-|--------------------------------------
-|-------------------------------------|--------------------------------------


-|--------------------------------------------|-------------------------------
-|--------------------------------------------|-------------------------------
-|--------------------------------------------|-------------------------------
-|--------------------------------------------|-------------------------------
-|--------------------------------2p0---------|-------------------------------
-|-0----0----0----0----2----3----------3/-----|-------------------------------


-|--------------------------------------------|-------------------------------
-|--------------------------------------------|-------------------------------
-|----------------10-12----10h12p10----10----|-------------------------------
-|----------10-12-------12----------12--------|-------------------------------
-|-10-10/12-----------------------------------|-------------------------------
-|--------------------------------------------|-------------------------------


-|----------------------------------|----------------------------------|------
-|--5--5--54--4---5--5--5--4--2p0--|--5--5--54--4---5--5--5--4--2p0--|------
-|--x--x--x----x---x--x--x--x--x----|--x--x--x----x---x--x--x--x--x----|------
-|--x--x--x----x---x--x--x--x--x----|--x--x--x----x---x--x--x--x--x----|------
-|--5--5--54--4---5--5--5--4--2p0--|--5--5--54--4---5--5--5--4--2p0--|------
-|----------------------------------|----------------------------------|------

G1 Suck blood touch please tunnel vision


-|----------------------------------|----------------------------------|------
-|----------------------------------|----------------------------------|------
-|--7--7--76--6---7--7--7--6--42--|--7--7--76--6---7--7--7--6--42--|------
-|--x--x--x----x---x--x--x--x--x----|--x--x--x----x---x--x--x--x--x----|------
-|--5--5--54--4---5--5--5--4--2--|--5--5--54--4---5--5--5--4--2--|------
-|----------------------------------|----------------------------------|------


-|----------------------------------|----------------------------------|------
-|--5--5--54--4---5--5--5--4--2p0--|--5--5--54--4---5--5--5--4--2p0--|------
-|--x--x--x----x---x--x--x--x--x----|--x--x--x----x---x--x--x--x--x----|------
-|--x--x--x----x---x--x--x--x--x----|--x--x--x----x---x--x--x--x--x----|------
-|--5--5--54--4---5--5--5--4--2p0--|--5--5--54--4---5--5--5--4--2p0--|------
-|----------------------------------|----------------------------------|------

G1 Took time see please please


-|----------------------------------|----------------------------------|------
-|----------------------------------|----------------------------------|------
-|--7--7--76--6---7--7--7--6--42--|--7--7--76--6---7--7--7--6--42--|------
-|--x--x--x----x---x--x--x--x--x----|--x--x--x----x---x--x--x--x--x----|------
-|--5--5--54--4---5--5--5--4--2--|--5--5--54--4---5--5--5--4--2--|------
-|----------------------------------|----------------------------------|------


-|--12------12------12----------12----|--12------12------12----------12----|--
-|-----12------12------12-12h15----15-|-----15------15------15-12h15----12-|--
-|------------------------------------|------------------------------------|--
-|------------------------------------|------------------------------------|--
-|------------------------------------|------------------------------------|--
-|------------------------------------|------------------------------------|--

G1 Please don’t go on me don’t go on me


-|------------------------------------|------------------------------------|--
-|------------------------------------|------------------------------------|--
-|------------------------------------|------------------------------------|--
-|-8--8--8--8--8----------------------|-8--8--8--8--8----------------------|--
-|-8--8--8--8--8---------------2p0----|-8--8--8--8--8---------------2p0----|--
-|-8--8--8--8--8--0-0-0-0-2-3------3/-|-8--8--8--8--8--0-0-0-0-2-3------3/-|--


-|------------------------------------|------------------------------------|--
-|-6----------------------------------|-6---------------------------------|--
-|-8b10-------------------------------|-8b10------------------------------|--
-|------------------------------------|------------------------------------|--
-|------------------------------------|------------------------------------|--
-|------------------------------------|------------------------------------|--


-|--12------12------12----------12----|--12------12------12----------12----|--
-|-----12------12------12-12h15----15-|-----15------15------15-12h15----12-|--
-|------------------------------------|------------------------------------|--
-|------------------------------------|------------------------------------|--
-|------------------------------------|------------------------------------|--
-|------------------------------------|------------------------------------|--

G1 don’t go on me don’t go on me


-|------------------------------------|------------------------------------|--
-|------------------------------------|------------------------------------|--
-|------------------------------------|------------------------------------|--
-|-8--8--8--8--8----------------------|-8--8--8--8--8----------------------|--
-|-8--8--8--8--8---------------2p0----|-8--8--8--8--8---------------2p0----|--
-|-8--8--8--8--8--0-0-0-0-2-3------3/-|-8--8--8--8--8--0-0-0-0-2-3------3/-|--


-|------------------------------------|------------------------------------|--
-|-6---------------------------------|-6---------------------------------|--
-|-8b10------------------------------|-8b10------------------------------|--
-|------------------------------------|------------------------------------|--
-|------------------------------------|------------------------------------|--
-|------------------------------------|------------------------------------|--


-|--12------12------12----------12----|--12------12------12----------12----|--
-|-----12------12------12-12h15----15-|-----15------15------15-12h15----12-|--
-|------------------------------------|------------------------------------|--
-|------------------------------------|------------------------------------|--
-|------------------------------------|------------------------------------|--
-|------------------------------------|------------------------------------|--

G1 Please don’t you want me don’t go on me


-|------------------------------------|------------------------------------|--
-|------------------------------------|------------------------------------|--
-|------------------------------------|------------------------------------|--
-|-8--8--8--8--8----------------------|-8--8--8--8--8----------------------|--
-|-8--8--8--8--8---------------2p0----|-8--8--8--8--8---------------2p0----|--
-|-8--8--8--8--8--0-0-0-0-2-3------3/-|-8--8--8--8--8--0-0-0-0-2-3------3/-|--


-|------------------------------------|------------------------------------|--
-|-6---------------------------------|-6---------------------------------|--
-|-8b10------------------------------|-8b10------------------------------|--
-|------------------------------------|------------------------------------|--
-|------------------------------------|------------------------------------|--
-|------------------------------------|------------------------------------|--


-|--12------12------12----------12----|--12------12-----12-----------------|--
-|-----12------12------12-12h15----15-|-----15------15-----15--------------|--
-|------------------------------------|------------------------------------|--
-|------------------------------------|------------------------------------|--
-|------------------------------------|------------------------------------|--
-|------------------------------------|------------------------------15---|--

G1 Please don’t go on me


-|------------------------------------|------------------------------------|--
-|------------------------------------|------------------------------------|--
-|------------------------------------|------------------------------------|--
-|-8--8--8--8--8----------------------|-8--8--8--8--8----------------------|--
-|-8--8--8--8--8---------------2p0----|-8--8--8--8--8---------------2p0----|--
-|-8--8--8--8--8--0-0-0-0-2-3------3/-|-8--8--8--8--8--0-0-0-0-2-3------3/-|--


-|------------------------------------|------------------------------------|--
-|-6---------------------------------|-6---------------------------------|--
-|-8b10------------------------------|-8b10------------------------------|--
-|------------------------------------|------------------------------------|--
-|------------------------------------|------------------------------------|--
-|------------------------------------|------------------------------------|--


-|-----------------------------------|-------------------------------------|--
-|-----------------------------------|-------------------------------------|--
-|-----------------------------------|-------------------------------------|--
-|-----------------------------------|-------------------------------------|--
-|---------------------2-p-0---------|---------------------2-p-0-----------|--
-|-0--0--0--0--2--3----------3/------|-0--0--0--0--2--3-----------3/-------|--


-|-----10----10----10----10----10----|-10----10----10----10----10----10----|--
-|-----13b15-13b15-13b15-13b15-13b15-|-13b15-13b15-13b15-13b15-13b15-13b15-|--
-|-----------------------------------|-------------------------------------|--
-|-----------------------------------|-------------------------------------|--
-|-----------------------------------|-------------------------------------|--
-|-----------------------------------|-------------------------------------|--

G2 (with wah)


-|-----------------------------------|-------------------------------------|--
-|-----------------------------------|-------------------------------------|--
-|-----------------------------------|-------------------------------------|--
-|-----------------------------------|-------------------------------------|--
-|---------------------2-p-0---------|---------------------2-p-0-----------|--
-|-0--0--0--0--2--3----------3/------|-0--0--0--0--2--3-----------3/-------|--


-|-----12----12----12----12----12----|-12----12----12----12----12----12----|--
-|-----15b17-15b17-15b17-15b17-15b17-|-15b17-15b17-15b17-15b17-15b17-15b17-|--
-|-----------------------------------|-------------------------------------|--
-|-----------------------------------|-------------------------------------|--
-|-----------------------------------|-------------------------------------|--
-|-----------------------------------|-------------------------------------|--


-|-----------------------------------|-----------------------------------|----
-|-----------------------------------|-----------------------------------|----
-|-----------------------------------|-----------------------------------|----
-|-----------------------------------|-----------------------------------|----
-|---------------------2-p-0---------|---------------------2-p-0---------|----
-|-0--0--0--0--2--3----------3/------|-0--0--0--0--2--3-----------3/-----|----


-|-----13----13----13----13----13----|-----13----13----13----13----13----|----
-|-----16b18-16b18-16b18-16b18-16b18-|-----16b18-16b18-16b18-16b18-16b18-|----
-|-----------------------------------|-----------------------------------|----
-|-----------------------------------|-----------------------------------|----
-|-----------------------------------|-----------------------------------|----
-|-----------------------------------|-----------------------------------|----


-|-----------------------------------|-----------------------------------|----
-|-----------------------------------|-----------------------------------|----
-|-----------------------------------|-----------------------------------|----
-|-----------------------------------|-----------------------------------|----
-|---------------------2-p-0---------|---------------------2-p-0---------|----
-|-0--0--0--0--2--3----------3/------|-0--0--0--0--2--3----------3/------|----


-|-----15----15----15----15----15----|-----15----15----15----15----15----|----
-|-----18b20-18b20-18b20-18b20-18b20-|-----18b20-18b20-18b20-18b20-18b20-|----
-|-----------------------------------|-----------------------------------|----
-|-----------------------------------|-----------------------------------|----
-|-----------------------------------|-----------------------------------|----
-|-----------------------------------|-----------------------------------|----


-|------------------------------------|-------------------------------------|-
-|------------------------------------|-------------------------------------|-
-|------------------------------------|-------------------------------------|-
-|------------------------------------|-------------------------------------|-
-|---------------------2-p-0----------|---------------------2-p-0-----------|-
-|-0--0--0--0--2--3-----------3/------|-0--0--0--0--2--3-----------3/-------|-


-|-17----17----17----17----17----17---|-17----17----17----17----17----17----|-
-|-20b22-20b22-20b22-20b22-20b22-20b22|-20b22-20b22-20b22-20b22-20b22-20b22-|-
-|------------------------------------|-------------------------------------|-
-|------------------------------------|-------------------------------------|-
-|------------------------------------|-------------------------------------|-
-|------------------------------------|-------------------------------------|-


-|------------------------------------|-------------------------------------|-
-|------------------------------------|-------------------------------------|-
-|------------------------------------|-------------------------------------|-
-|------------------------------------|-------------------------------------|-
-|---------------------2-p-0----------|---------------------2-p-0-----------|-
-|-0--0--0--0--2--3-----------3/------|-0--0--0--0--2--3-----------3/-------|-


-|-17----17----17----17----17----17---|-17----17----17----17----17----17----|-
-|-20b22-20b22-20b22-20b22-20b22-20b22|-20b22-20b22-20b22-20b22-20b22-20b22-|-
-|------------------------------------|-------------------------------------|-
-|------------------------------------|-------------------------------------|-
-|------------------------------------|-------------------------------------|-
-|------------------------------------|-------------------------------------|-


-|------------------------------------|-------------------------------------|-
-|------------------------------------|-------------------------------------|-
-|------------------------------------|-------------------------------------|-
-|------------------------------------|-------------------------------------|-
-|---------------------2-p-0----------|---------------------2-p-0-----------|-
-|-0--0--0--0--2--3-----------3/------|-0--0--0--0--2--3-----------3/-------|-


-|-17----17----17----17----17----17---|-17----17----17----17----17----17----|-
-|-20b22-20b22-20b22-20b22-20b22-20b22|-20b22-20b22-20b22-20b22-20b22-20b22-|-
-|------------------------------------|-------------------------------------|-
-|------------------------------------|-------------------------------------|-
-|------------------------------------|-------------------------------------|-
-|------------------------------------|-------------------------------------|-


-|-------------------------------------|--------------------------------------
-|-------------------------------------|--------------------------------------
-|-------------------------------------|--------------------------------------
-|-------------------------------------|--------------------------------------
-|---------------------2-p-0-----------|--------------------------------------
-|-0--0--0--0--2--3-----------3/-------|--------------------------------------


-|-17----17----17----17----17----17----|--------------------------------------
-|-20b22-20b22-20b22-20b22-20b22-20b22-|--------------------------------------
-|-------------------------------------|--------------------------------------
-|-------------------------------------|--------------------------------------
-|-------------------------------------|--------------------------------------
-|-------------------------------------|--------------------------------------


-|-------------------------------------------------|---------------||---------
-|-------------------------------------------------|---------------||---------
-|-------------------------------------------------|---------------||---------
-|-------------------------------------------------|---------------||---------
-|-------------------------------------------------|---------------||---------
-|-12-12-12-12-12-12-12-12-12-12-12-12-12-12-12-12-|-12------------||---------


-|-20----------------------------------------------|---------------||---------
-|-20b22-------------------------------------------|-20------------||---------
-|--/----------------------------------------------|---------------||---------
-|--/----------------------------------------------|---------------||---------
-|-------------------------------------------------|---------------||---------
-|-------------------------------------------------|---------------||---------

G2 trem pick

To play the most songs, including Go by Pearl Jam by ukulele, the most important basic ukulele chords to learn are C chord, D chord, G chord, and Em chord.
These set you up to play a many of songs, and each of them is easy to master.

If you are looking for Spin the Black Circle ukulele chords, you’ve visit to the right site.
You can play versatile instrument Spin the Black Circle using ukulele or guitar.
This song by Pearl Jam can also be played by that instruments.
=

Spin the Black Circle chords has rhythm and included in Vitalogy (1994) album.
You can also find other musical style, including jazz ukulele chords, country music ukulele chords, pop ukulele chords, world music ukulele chords, and rock ukulele chords here.

Spin the Black Circle by Pearl Jam Ukulele Chords


Author/Artist: Pearl Jam
Title: Spin The Black Circle
Album: Vitalogy
Transcribed by: Evan Cowan
Email: ecowan@uclink4.berkeley.edu


-|-----------------------------------------------------------------------|----
-|-----------------------------------------------------------------------|----
-|-------4--4-4-4-4-4-4-4-4-4-4-4-------4--4-4-4-4-4-4-4-4-4-4-4-4-4-4-4-|----
-|-------4--4-4-4-4-4-4-4-4-4-4-4-------4--4-4-4-4-4-4-4-4-4-4-4-4-4-4-4-|----
-|-0---0-2--2-2-2-2-2-2-2-2-2-2-2-0---0-2--2-2-2-2-2-2-2-2-2-2-2-2-2-2-2-|----
-|---3------------------------------3------------------------------------|----

Intro, G1


-|-----------------------------------------------------------------------|----
-|-----------------------------------------------------------------------|----
-|--------------------------------------4--4-4-4-4-4-4-4-4-4-4-4-4-9-9-9-|----
-|--------------------------------------4--4-4-4-4-4-4-4-4-4-4-4-4-9-9-9-|----
-|--------------------------------0---0-2--2-2-2-2-2-2-2-2-2-2-2-2-7-7-7-|----
-|----------------------------------3------------------------------------|----

Intro, G2


-|-------------------------------------------------------------------|--------
-|-------------------------------------------------------------------|--------
-|-109--8--7--5--------------------109--8--7--5--------------------|--------
-|-109--8--7--5--------------------109--8--7--5--------------------|--------
-|--87--6--5--3---------------------87--6--5--3--------------------|--------
-|-------------------------------------------------------------------|--------


-|---------------------8-8------8-8---------------------8-8----------|--------
-|----------------8----8-8-8----8-8----------------8----8-8--8-------|--------
-|---------------10b12----10b12-------------------10b12-----10b12r10-|--------
-|-------------------------------------------------------------------|--------
-|-------------------------------------------------------------------|--------
-|-------------------------------------------------------------------|--------


-|-----------------------------------|-----------------------------------|----
-|-----------------------------------|-----------------------------------|----
-|-109--8--7--5---------------------|-109--8--7--5---------------------|----
-|-109--8--7--5---------------------|-109--8--7--5---------------------|----
-|--87--6--5--3---------------------|--87--6--5--3---------------------|----
-|-----------------------------------|-----------------------------------|----

G1 3x


-|---------------------8-8-------8-8-|----------------8----8-8--8----8-8-|----
-|----------------8----8-8--8----8-8-|---------------11b13-----11b13-----|----
-|---------------10b12-----10b12-----|-----------------------------------|----
-|-----------------------------------|-----------------------------------|----
-|-----------------------------------|-----------------------------------|----
-|-----------------------------------|-----------------------------------|----

G2 3x


-|---------------------------------------------------------------------|------
-|---------------------------------------------------------------------|------
-|-109--8--7--5---------------------109--8--7--5---------------------|------
-|-109--8--7--5---------------------109--8--7--5---------------------|------
-|--87--6--5--3----------------------87--6--5--3---------------------|------
-|---------------------------------------------------------------------|------


-|---------------------8-8-------8-8--------------------8-8-------8-8--|------
-|----------------8----8-8--8----8-8---------------8----8-8--8----8-8--|------
-|---------------10b12-----10b12------------------10b12-----10b12------|------
-|---------------------------------------------------------------------|------
-|---------------------------------------------------------------------|------
-|---------------------------------------------------------------------|------


-|------------------------------------------------------------|---------------
-|------------------------------------------------------------|---------------
-|-------4----------------------------------------------------|---------------
-|-------4--4-4-4-4-4-4-4-4-4-4-4-4-4-4-4-4-4-4-4-4-4-4-------|---------------
-|-0---0-2--2-2-2-2-2-2-2-2-2-2-2-2-2-2-2-2-2-2-2-2-2-2-0---0-|---------------
-|---3----------------------------------------------------3---|---------------

G1 See this needle a see my hand


-|--------------------------------------------------------------|-------------
-|--------------------------------------------------------------|-------------
-|-4------------------------------------------------------2-2-2-|-------------
-|-4--4-4-4-4-4-4-4-4-4-4-4-4-4-4-4-4-4-4-4-4-4-4-4-4-4-4-2-2-2-|-------------
-|-2--2-2-2-2-2-2-2-2-2-2-2-2-2-2-2-2-2-2-2-2-2-2-2-2-2-2-0-0-0-|-------------
-|--------------------------------------------------------------|-------------

G1 Drop drop dropping it down oh so gently


-|--0-----------------------------------------------------------|-------------
-|--3-----------------------------0-----------------------------|-------------
-|--4--------------------------x/-------------------------------|-------------
-|--4--------------------------x/-------------------------------|-------------
-|--2--------------------------x/-------------------------------|-------------
-|----------------------------------------------/12------7-5-7-|-------------

G2 (reverse strum)


-|------------------------------------------------------------------|---------
-|------------------------------------------------------------------|---------
-|----7--7-7--7-7-7-7-7-7-7-7-7-7-7-7-7-7-7-7-7-7-7-7-7-7-7-7-------|---------
-|----7--7-7--7-7-7-7-7-7-7-7-7-7-7-7-7-7-7-7-7-7-7-7-7-7-7-7-------|---------
-|----5--5-5--5-5-5-5-5-5-5-5-5-5-5-5-5-5-5-5-5-5-5-5-5-5-5-5-------|---------
-|------------------------------------------------------------7-5-7-|---------

G1+G2 Well here it comes I touch the plane


-|-----------------------------------------------------------------|----------
-|-----------------------------------------------------------------|----------
-|-7--7-7--7-7-7-7-7-7-7-7-7-7-7-7-7-7-7-7-7-7-7-7-7-7-7-7-7-7-7-7-|----------
-|-7--7-7--7-7-7-7-7-7-7-7-7-7-7-7-7-7-7-7-7-7-7-7-7-7-7-7-7-7-7-7-|----------
-|-5--5-5--5-5-5-5-5-5-5-5-5-5-5-5-5-5-5-5-5-5-5-5-5-5-5-5-5-5-5-5-|----------
-|-----------------------------------------------------------------|----------

Turn me up Won’t turn you away


-|-----------------------------------------------------------------------|----
-|-----------------------------------------------------------------------|----
-|-109--8--7--5---------------------109--8--7--5-----------------------|----
-|-109--8--7--5---------------------109--8--7--5-----------------------|----
-|--87--6--5--3----------------------87--6--5--3-----------------------|----
-|-----------------------------------------------------------------------|----

G1 Spin Spin Spin the black circle


-|---------------------8-8-------8-8-------------------------------------|----
-|----------------8----8-8--8----8-8-------------------------------------|----
-|---------------10b12-----10b12-----------------------------------------|----
-|-----------------------------------------------------------------------|----
-|-----------------------------------------------------------------------|----
-|-----------------------------------------------------------------------|----


-|--------------------------------------------------------------------------|-
-|--------------------------------------------------------------------------|-
-|-109--8--7--5---------------------109-8-7-5-----------------------------|-
-|-109--8--7--5---------------------109-8-7-5-----------------------------|-
-|--87--6--5--3----------------------87-6-5-3-----------------------------|-
-|--------------------------------------------------------------------------|-

G1 Spin Spin Spin the black spin the black


-|---------------------8-8-------8-8----------------------------------------|-
-|----------------8----8-8--8----8-8----------------------------------------|-
-|---------------10b12-----10b12--------------------------------------------|-
-|--------------------------------------------------------------------------|-
-|--------------------------------------------------------------------------|-
-|--------------------------------------------------------------------------|-


-|-----------------------------------------------------------------------|----
-|-----------------------------------------------------------------------|----
-|-109--8--7--5---------------------109--8--7--5-----------------------|----
-|-109--8--7--5---------------------109--8--7--5-----------------------|----
-|--87--6--5--3----------------------87--6--5--3-----------------------|----
-|-----------------------------------------------------------------------|----

G1 Spin Spin Spin the black circle


-|---------------------8-8-------8-8-------------------------------------|----
-|----------------8----8-8--8----8-8-------------------------------------|----
-|---------------10b12-----10b12-----------------------------------------|----
-|-----------------------------------------------------------------------|----
-|-----------------------------------------------------------------------|----
-|-----------------------------------------------------------------------|----


-|-----------------------------------------------------------------------|----
-|-----------------------------------------------------------------------|----
-|-109--8--7--5---------------------109--8--7--5-----5-5------5-5-5----|----
-|-109--8--7--5---------------------109--8--7--5-----5-5------5-5-5----|----
-|--87--6--5--3----------------------87--6--5--3-----3-3------3-3-3----|----
-|-----------------------------------------------------------------------|----

G1 Spin Spin Wohhhh


-|---------------------8-8-------8-8-------------------------------------|----
-|----------------8----8-8--8----8-8-------------------------------------|----
-|---------------10b12-----10b12-----------------------------------------|----
-|-----------------------------------------------------------------------|----
-|-----------------------------------------------------------------------|----
-|-----------------------------------------------------------------------|----


-|--------------------------------------------------------------|-------------
-|--------------------------------------------------------------|-------------
-|-4------------------------------------------------------------|-------------
-|-4--4-4-4-4-4-4-4-4-4-4-4-4-4-4-4-4-4-4-4-4-4-4-4-4-4-4-------|-------------
-|-2--2-2-2-2-2-2-2-2-2-2-2-2-2-2-2-2-2-2-2-2-2-2-2-2-2-2-0---0-|-------------
-|----------------------------------------------------------3---|-------------

G1 Pull it out A paper sleeve


-|----------------------------------------------------------------|-----------
-|----------------------------------------------------------------|-----------
-|-4--------------------------------------------------------2-2-2-|-----------
-|-4--4-4-4-4-4-4-4-4-4-4-4-4-4-4-4-4-4-4-4-4-4-4-4-4-4-4-4-2-2-2-|-----------
-|-2--2-2-2-2-2-2-2-2-2-2-2-2-2-2-2-2-2-2-2-2-2-2-2-2-2-2-2-0-0-0-|-----------
-|----------------------------------------------------------------|-----------

G1 Oh my joy Only you deserve conceit


-|----------------------------------------------------------------|-----------
-|----------------------------------------------------------------|-----------
-|----------------------------------------------------------------|-----------
-|--------------9b---10---------------------------x--------7-7-7-|-----------
-|------------------------------------------------x--------7-7-7-|-----------
-|------------------------------------------------x--------5-5-5-|-----------

G2 grad.bend


-|----------------------------------------------------------------|-----------
-|----------------------------------------------------------------|-----------
-|--7--7-7--7-7-7-7-7-7-7-7-7-7-7-7-7-7-7-7-7-7-7-7-7-7-7-7-------|-----------
-|--7--7-7--7-7-7-7-7-7-7-7-7-7-7-7-7-7-7-7-7-7-7-7-7-7-7-7-------|-----------
-|--5--5-5--5-5-5-5-5-5-5-5-5-5-5-5-5-5-5-5-5-5-5-5-5-5-5-5-------|-----------
-|----------------------------------------------------------7-5-7-|-----------

G1+G2 Oh so big A my whole world


-|-----------------------------------------------------------------|----------
-|-----------------------------------------------------------------|----------
-|-7--7-7--7-7-7-7-7-7-7-7-7-7-7-7-7-7-7-7-7-7-7-7-7-7-7-7-7-7-7-7-|----------
-|-7--7-7--7-7-7-7-7-7-7-7-7-7-7-7-7-7-7-7-7-7-7-7-7-7-7-7-7-7-7-7-|----------
-|-5--5-5--5-5-5-5-5-5-5-5-5-5-5-5-5-5-5-5-5-5-5-5-5-5-5-5-5-5-5-5-|----------
-|-----------------------------------------------------------------|----------

I’d rather you… Rather you… Than her


-|----------------------------------------------------------------------|-----
-|----------------------------------------------------------------------|-----
-|-109--8--7--5---------------------109--8--7--5----------------------|-----
-|-109--8--7--5---------------------109--8--7--5----------------------|-----
-|--87--6--5--3----------------------87--6--5--3----------------------|-----
-|----------------------------------------------------------------------|-----

G1 Spin Spin Spin the black circle


-|---------------------8-8-------8-8------------------------------------|-----
-|----------------8----8-8--8----8-8------------------------------------|-----
-|---------------10b12-----10b12----------------------------------------|-----
-|----------------------------------------------------------------------|-----
-|----------------------------------------------------------------------|-----
-|----------------------------------------------------------------------|-----


-|--------------------------------------------------------------------------|-
-|--------------------------------------------------------------------------|-
-|-109--8--7--5---------------------109-8-7-5-----------------------------|-
-|-109--8--7--5---------------------109-8-7-5-----------------------------|-
-|--87--6--5--3----------------------87-6-5-3-----------------------------|-
-|--------------------------------------------------------------------------|-

G1 Spin Spin Spin the black spin the black


-|---------------------8-8-------8-8----------------------------------------|-
-|----------------8----8-8--8----8-8----------------------------------------|-
-|---------------10b12-----10b12--------------------------------------------|-
-|--------------------------------------------------------------------------|-
-|--------------------------------------------------------------------------|-
-|--------------------------------------------------------------------------|-


-|----------------------------------------------------------------------|-----
-|----------------------------------------------------------------------|-----
-|-109--8--7--5---------------------109--8--7--5----------------------|-----
-|-109--8--7--5---------------------109--8--7--5----------------------|-----
-|--87--6--5--3----------------------87--6--5--3----------------------|-----
-|----------------------------------------------------------------------|-----

G1 Spin Spin Spin the black circle


-|---------------------8-8-------8-8------------------------------------|-----
-|----------------8----8-8--8----8-8------------------------------------|-----
-|---------------10b12-----10b12----------------------------------------|-----
-|----------------------------------------------------------------------|-----
-|----------------------------------------------------------------------|-----
-|----------------------------------------------------------------------|-----


-|-------------------------------------------------------------|--------------
-|-------------------------------------------------------------|--------------
-|-109--8--7--5---------------------109--8--7--5-------------|--------------
-|-109--8--7--5---------------------109--8--7--5-------------|--------------
-|--87--6--5--3----------------------87--6--5--3-------------|--------------
-|-------------------------------------------------------------|--------------

G1 Spin Spin Wohhh______


-|---------------------8-8-------8-8---------------------------|--------------
-|----------------8----8-8--8----8-8---------------------------|--------------
-|---------------10b12-----10b12-------------------------------|--------------
-|-------------------------------------------------------------|--------------
-|-------------------------------------------------------------|--------------
-|-------------------------------------------------------------|--------------


-|-------------------------------------------------------------------------|--
-|-------------------------------------------------------------------------|--
-|-------------------------------------------------------------------------|--
-|-------------------------------------------------------------------------|--
-|-10-10-10-11-11-11-10-10-9-9-9-10-10-10-9-9-8-8-8-9-9-9-8-8-7-7-7-7-7-10-|--
-|--8--8--8--9--9--9--8--8-7-7-7--8--8--8-7-7-6-6-6-7-7-7-6-6-5-5-5-5-5--8-|--

G1 Oh____________________________________________________________


-|-------------------------------------------------------------------------|--
-|-------------------------------------------------------------------------|--
-|-------------------------------------------------------------------------|--
-|-10-10-10-11-11-11-10-10-9-9-9-10-10-10-9-9-8-8-8-9-9-9-8-8-7-7-7-7-7-10-|--
-|-10-10-10-11-11-11-10-10-9-9-9-10-10-10-9-9-8-8-8-9-9-9-8-8-7-7-7-7-7-10-|--
-|-------------------------------------------------------------------------|--


-|--------------------------------------------------------------------------|-
-|--------------------------------------------------------------------------|-
-|--------------------------------------------------------------------------|-
-|--------------------------------------------------------------------------|-
-|-10-10-10-10-10-11-11-11-10-10-9-9-9-10-10-10-9-9-8-8-8-9-9-9-8-8-7-7-7-7-|-
-|--8--8--8--8--8--9--9--9--8--8-7-7-7--8--8--8-7-7-6-6-6-7-7-7-6-6-5-5-5-5-|-


-|--------------------------------------------------------------------------|-
-|--------------------------------------------------------------------------|-
-|--------------------------------------------------------------------------|-
-|-10-10-10-10-10-11-11-11-10-10-9-9-9-10-10-10-9-9-8-8-8-9-9-9-8-8-7-7-7-7-|-
-|-10-10-10-10-10-11-11-11-10-10-9-9-9-10-10-10-9-9-8-8-8-9-9-9-8-8-7-7-7-7-|-
-|--------------------------------------------------------------------------|-


-|--------|----------------------------------------------------------------|--
-|--------|----------------------------------------------------------------|--
-|--------|-4--4-4-4-4-4-4-4-4-4-4-4-4-4-4-4-4-4-4-4-4-4-4-4-4-4-4-4-------|--
-|--------|-4--4-4-4-4-4-4-4-4-4-4-4-4-4-4-4-4-4-4-4-4-4-4-4-4-4-4-4-------|--
-|--0---0-|-2--2-2-2-2-2-2-2-2-2-2-2-2-2-2-2-2-2-2-2-2-2-2-2-2-2-2-2-2-0-0-|--
-|----3---|----------------------------------------------------------------|--

G1 Oh


-|------------------------------------------------------------------|---------
-|------------------------------------------------------------------|---------
-|-7--7-7-7-7-7-7-7-7-7-7-7-7-7-7-7-7-7-7-7-7-7-7-7-7-7-7-7-7-7-7-7-|---------
-|-7--7-7-7-7-7-7-7-7-7-7-7-7-7-7-7-7-7-7-7-7-7-7-7-7-7-7-7-7-7-7-7-|---------
-|-5--5-5-5-5-5-5-5-5-5-5-5-5-5-5-5-5-5-5-5-5-5-5-5-5-5-5-5-5-5-5-5-|---------
-|------------------------------------------------------------------|---------

G1 You’re so warm______________________


-|------------------------------------------------------------------|---------
-|------------------------------------------------------------------|---------
-|-9--9-9-9-9-9-9-9-9-9-9-9-9-9-9-9-9-9-9-9-9-9-9-9-9-9-9-9-9-9-9-9-|---------
-|-9--9-9-9-9-9-9-9-9-9-9-9-9-9-9-9-9-9-9-9-9-9-9-9-9-9-9-9-9-9-9-9-|---------
-|-7--7-7-7-7-7-7-7-7-7-7-7-7-7-7-7-7-7-7-7-7-7-7-7-7-7-7-7-7-7-7-7-|---------
-|------------------------------------------------------------------|---------

G1 Ohh the ritual___________ When I


-|------------------------------------------------------------------|---------
-|------------------------------------------------------------------|---------
-|--9-9-9-9-9-9-9-9-9-9-9-9-9-9-9-9-9-9-9-9-9-9-9-9-9-9-9-9-9-9-9-9-|---------
-|--9-9-9-9-9-9-9-9-9-9-9-9-9-9-9-9-9-9-9-9-9-9-9-9-9-9-9-9-9-9-9-9-|---------
-|--7-7-7-7-7-7-7-7-7-7-7-7-7-7-7-7-7-7-7-7-7-7-7-7-7-7-7-7-7-7-7-7-|---------
-|------------------------------------------------------------------|---------

G1 Lay down your crooked arm__________


-|------------------------------------------------------------------|---------
-|------------------------------------------------------------------|---------
-|------------------------------------------------------------------|---------
-|------------------------------------------------------------------|---------
-|-10---/--11--10-9---/--10---9-8---/---9--8-------------------|---------
-|--/-------/----/--/-------/----/--/-------/---/-----12-----------|---------

G2 (trem pick all notes) trem pick while sliding


-|----------------------------------------------------------------------|-----
-|----------------------------------------------------------------------|-----
-|-109--8--7--5---------------------109--8--7--5----------------------|-----
-|-109--8--7--5---------------------109--8--7--5----------------------|-----
-|--87--6--5--3----------------------87--6--5--3----------------------|-----
-|----------------------------------------------------------------------|-----

G1 Spin Spin Spin the black circle


-|---------------------8-8-------8-8------------------------------------|-----
-|----------------8----8-8--8----8-8------------------------------------|-----
-|---------------10b12-----10b12----------------------------------------|-----
-|----------------------------------------------------------------------|-----
-|----------------------------------------------------------------------|-----
-|----------------------------------------------------------------------|-----


-|--------------------------------------------------------------------------|-
-|--------------------------------------------------------------------------|-
-|-109--8--7--5---------------------109-8-7-5-----------------------------|-
-|-109--8--7--5---------------------109-8-7-5-----------------------------|-
-|--87--6--5--3----------------------87-6-5-3-----------------------------|-
-|--------------------------------------------------------------------------|-

G1 Spin Spin Spin the black spin the black


-|---------------------8-8-------8-8----------------------------------------|-
-|----------------8----8-8--8----8-8----------------------------------------|-
-|---------------10b12-----10b12--------------------------------------------|-
-|--------------------------------------------------------------------------|-
-|--------------------------------------------------------------------------|-
-|--------------------------------------------------------------------------|-


-|-----------------------------------------------------------------|----------
-|-----------------------------------------------------------------|----------
-|-109--8--7--5----------------109--8--7--5----------------------|----------
-|-109--8--7--5----------------109--8--7--5----------------------|----------
-|--87--6--5--3-----------------87--6--5--3----------------------|----------
-|-----------------------------------------------------------------|----------

G1 Spin Spin Spin the black circle


-|----------------11p8-11p8-11p8-----------------------------------|----------
-|-----------------------------------------------------------------|----------
-|-----------------------------------------------------------------|----------
-|-----------------------------------------------------------------|----------
-|-----------------------------------------------------------------|----------
-|-----------------------------------------------------------------|----------


-|--------------------------------------------------------------------------|-
-|--------------------------------------------------------------------------|-
-|-109--8--7--5---------------------109-8-7-5-----------------------------|-
-|-109--8--7--5---------------------109-8-7-5-----------------------------|-
-|--87--6--5--3----------------------87-6-5-3-----------------------------|-
-|--------------------------------------------------------------------------|-

G1 Spin Spin Spin the black spin the black


-|---------------------8-8-------8-8----------------------------------------|-
-|----------------8----8-8--8----8-8----------------------------------------|-
-|---------------10b12-----10b12--------------------------------------------|-
-|--------------------------------------------------------------------------|-
-|--------------------------------------------------------------------------|-
-|--------------------------------------------------------------------------|-


-|-------------------------------------------------------|--------------------
-|-------------------------------------------------------|--------------------
-|--109--8--7--5----------------------------------------|--------------------
-|--109--8--7--5----------------------------------------|--------------------
-|---87--6--5--3----------------------------------------|--------------------
-|-------------------------------------------------------|--------------------

G1 Spin the black spin the black spin the black circle


-|-------------------------------------------------------|--------------------
-|---11p8h11p8h11p8h11p8h11p8h11p8h11p8h11p8h11p8h11p8---|--------------------
-|-------------------------------------------------------|--------------------
-|-------------------------------------------------------|--------------------
-|-------------------------------------------------------|--------------------
-|-------------------------------------------------------|--------------------


-|----------------------------------------------------------------------|-----
-|----------------------------------------------------------------------|-----
-|-109--8--7--5---------------------109--8--7--5----------------------|-----
-|-109--8--7--5---------------------109--8--7--5----------------------|-----
-|--87--6--5--3----------------------87--6--5--3----------------------|-----
-|----------------------------------------------------------------------|-----

G1 Spin the black circle Spin the black circle


-|-------------------------------------8------------8--------------8----|-----
-|-11p8h11p8h11p8h11p8h11p8h11p8h11p8-11b13--------11b13----------11b13-|-----
-|----------------------------------------------------------------------|-----
-|----------------------------------------------------------------------|-----
-|----------------------------------------------------------------------|-----
-|----------------------------------------------------------------------|-----


-|-------------------------------------------------------------------------|--
-|-------------------------------------------------------------------------|--
-|-109--8--7--5---------------------109--8--7--5-------------------------|--
-|-109--8--7--5---------------------109--8--7--5-------------------------|--
-|--87--6--5--3----------------------87--6--5--3-------------------------|--
-|-------------------------------------------------------------------------|--

G1 Spin the black circle Spin the black circle


-|--8----------8-----------------------------------------------------------|--
-|-11b13------11b13--11-8----8---------------------------------------------|--
-|------------------------10----10b11-11-11-11-11-11-10b12r10p8----8h10p8--|--
-|--------------------------------------------------------------10---------|--
-|-------------------------------------------------------------------------|--
-|-------------------------------------------------------------------------|--
G2 hold bend---------|
-|-------------------------------------------------------------------------|--
-|-------------------------------------------------------------------------|--
-|-109--8--7--5--------------109--8--7--5------------109-8-7-5----------|--
-|-109--8--7--5--------------109--8--7--5------------109-8-7-5----------|--
-|--87--6--5--3---------------87--6--5--3-------------87-6-5-3----------|--
-|-------------------------------------------------------------------------|--

G1 Spin spin spin spin Spin spin Spin spin


-|--11----11-11-11-11-11-11-11-11-11-11-11-11-11-11-11-11-11-11-11-11-11---|--
-|--11b13-13-13-13-13-13-13-13-13-13-13-13-13-13-13-13-13-13-13-13-13-13---|--
-|-------------------------------------------------------------------------|--
-|-------------------------------------------------------------------------|--
-|-------------------------------------------------------------------------|--
-|-------------------------------------------------------------------------|--
G2 hold bend---------------------------------------------------------|
-|-------------------------------------------------------------------------|--
-|-------------------------------------------------------------------------|--
-|-------------------------------------------------------------------------|--
-|------5-----------------------------6------7------8-----9----10----------|--
-|------/-----------------------------/------/------/-----/-----/----------|--
-|------/-----------------------------/------/------/-----/-----/----------|--


-|-------------------------------------------------------------------------|--
-|-------------------------------------------------------------------------|--
-|-109--8--7--5-----------109--8--7--5--------109--8--7--5--------------|--
-|-109--8--7--5-----------109--8--7--5--------109--8--7--5--------------|--
-|--87--6--5--3------------87--6--5--3---------87--6--5--3--------------|--
-|-------------------------------------------------------------------------|--

G1 Spin spin Spin spin


-|-11-11-11-----------------------------8----------------------------------|--
-|-13-13-13r11--11b13-11b13vvvvvvvvvvvv---11-8---11p8----8-----------------|--
-|---------------------------------------------9------10--b12r10p8----8vvv|--
-|------------------------------------------------------------------10-----|--
-|-------------------------------------------------------------------------|--
-|-------------------------------------------------------------------------|--
G2 -------| wide vibrato pre-bend
-|------------------------15-16-15-14-15-14-13-14-13-12--------------------|--
-|-------------------------------------------------------------------------|--
-|-------------------------------------------------------------------------|--
-|-------------------------------------------------------------------------|--
-|-------------------------------------------------------------------------|--
-|-------------------------------------------------------------------------|--


-|---------------------||-----------------------------------------------------
-|---------------------||-----------------------------------------------------
-|-109--8--7----------||-----------------------------------------------------
-|-109--8--7----------||-----------------------------------------------------
-|--87--6--5----------||-----------------------------------------------------
-|-------------8b10r8-||-----------------------------------------------------


-|---------------------||-----------------------------------------------------
-|---------------------||-----------------------------------------------------
-|-8vv-8vv-8-----------||-----------------------------------------------------
-|---------------------||-----------------------------------------------------
-|---------------------||-----------------------------------------------------
-|---------------------||-----------------------------------------------------


-|-15-16---------------||-----------------------------------------------------
-|---------------------||-----------------------------------------------------
-|---------------------||-----------------------------------------------------
-|---------------------||-----------------------------------------------------
-|------------15-------||-----------------------------------------------------
-|------------15-------||-----------------------------------------------------


To play the this songs, including Spin the Black Circle by Pearl Jam by ukulele, the most important basic ukulele chords to learn are C chord, D chord, G chord, and Em chord.
These set you up to play a ton of songs, and each of them is easy to learn.

If you are searching for Of the Girl ukulele chords, you’ve come to the right place.
You can play versatile instrument Of the Girl using ukulele or guitar.
This song by Pearl Jam can also be played by that instruments.
=

Of the Girl chords has rhythm and included in Other Songs album.
You can also get other musical genres, including jazz ukulele chords, country music ukulele chords, pop ukulele chords, world music ukulele chords, and rock ukulele chords here.

Of the Girl by Pearl Jam Ukulele Chords

Author/Artist: Pearl Jam
Title: Of The Girl
Album: Binaural
Transcribed by: Evan Cowan
Email: evan@giventowail.com

Dropped-D, down a half step (low to high DbAbDbGbBbEb)
This tab is a complete guess…G2 is very hard to hear throughout

Intro:


-|---------0---------------------------------------------------------------|--
-|-------3-----------------------------------------------------------------|--
-|--------------2---2---2---2---5---2---2---2---5---2---2---2---5---2---2--|--
-|----0-------0---0---0---0---0---0---0---0---0---0---0---0---0---0---0----|--
-|-------------------------------------------------------------------------|--
-|-------------------------------------------------------------------------|--


-|-0----------7-8-------------------5---5---5---5---5---5---5---5---5---5--|--
-|-0----------------0-------------3---3---3---3---3---3---3---3---3---3----|--
-|-0-----------------------------------------------------------------------|--
-|-------------------------------------------------------------------------|--
-|-------------------------------------------------------------------------|--
-|-------------------------------------------------------------------------|--


-|--------------------------------------------------------------------------|-
-|--------------------------------------------------------------------------|-
-|---2---5---2---2---5---2---2---4---5---2---2---2---5---2---2---5---2---2--|-
-|-0---0---0---0---0---0---0---0---0---0---0---0---0---0---0---0---0---0----|-
-|--------------------------------------------------------------------------|-
-|--------------------------------------------------------------------------|-


-|---5---5---5---5---5---5---5---5---5---5---5---5---5---5---5---5---5---5--|-
-|-3---3---3---3---3---3---3---3---3---3---3---3---3---3---3---3---3---3----|-
-|--------------------------------------------------------------------------|-
-|--------------------------------------------------------------------------|-
-|--------------------------------------------------------------------------|-
-|--------------------------------------------------------------------------|-


-|---------------------------------------5-------8--10----------------------|-
-|-------1------------------------------------------------------------------|-
-|-------4-----------------------4---5--------------------------------------|-
-|--------------------------------------------------------------------------|-
-|--------------------------------------------------------------------------|-
-|--------------------------------------------------------------------------|-


-|----------0---------0-----------------------------------------------------|-
-|-----------------1-----1----1--1----------0--1--------0h1p0--0----0--1----|-
-|---2---4-----5-----------2-------------2--------2--2-----------2-------2--|-
-|-0---0--------------------------------------------------------------------|-
-|--------------------------------------------------------------------------|-
-|--------------------------------------------------------------------------|-

G1 (bass and drums enter)


-|---5------0-------0----------------------------------5------5---5---5---5-|-
-|-3---3-0----1--------1--------------------0--1-----3------3---3---3---3---|-
-|--------------2---------------------------------2-------------------------|-
-|--------------------------------------------------------------------------|-
-|--------------------------------------------------------------------------|-
-|--------------------------------------------------------------------------|-


-|------------------------------------------------------------------10------|-
-|--------------------------------------10--------------------------10------|-
-|---------------------------------10-x-10----------------12/14-----10------|-
-|---------------------------------10-x-10-12-------------------------------|-
-|--------------------------------------------------------------------------|-
-|--------x-x-x-0--0--0--0---0--0-------------0----0--0----------0-----0--0-|-


-|--------------------------------------------------------------------------|-
-|--------------0--1-------0--0-------0--1----------------------------------|-
-|--2-0------2-------2--2-------2--2-------2---2--0-------2--2--0--------2--|-
-|------3-0------------------------------------------3-0-----------3--0-----|-
-|--------------------------------------------------------------------------|-
-|--------------------------------------------------------------------------|-


-|--5-3------5---8--5---5------5--8----5------5--8----5---5--5--3--------5--|-
-|------6-3---------------3--3-------3---3--3-------3---3----------6--3-----|-
-|--------------------------------------------------------------------------|-
-|--------------------------------------------------------------------------|-
-|--------------------------------------------------------------------------|-
-|--------------------------------------------------------------------------|-


-|--------------------------------------------------------------------------|-
-|--10--10----------------10--10-----10-10-10b---12-10------10-12-10----10-|-
-|--10--10----------------10--10-----10-10-10b---12-10------10-12-10----10-|-
-|---------12--------------------12------------12-------12-12---------12----|-
-|---------------------12---------------------------------------------------|-
-|---------------------12---------------------------------------------------|-

G3 quarter step bend

Verse:


-|------------------------------------------------------------|---------------
-|------------------------------------------------------------|---------------
-|--2-0-------2---2-0-------2--2-0-------2---2--0---------2---|---------------
-|-------3-0-----------3-0----------3-0------------3--0-------|---------------
-|------------------------------------------------------------|---------------
-|------------------------------------------------------------|---------------

G1 Oh he deals em off


-|--5-3-------5---5-3-------5--5-3-------5---5--3---------5---|---------------
-|-------6-3-----------6-3----------6-3------------6--3-------|---------------
-|------------------------------------------------------------|---------------
-|------------------------------------------------------------|---------------
-|------------------------------------------------------------|---------------
-|------------------------------------------------------------|---------------


-|------------------------------------------------------------|---------------
-|-------------10--x-10-------10---------------------------10-|---------------
-|-------------10--x-10-------10---------------------------10-|---------------
-|-1210-12-12----------12-12----1210-12-12------------------|---------------
-|--x-----x--x--------------------x-----x--x------------------|---------------
-|-1210-12-12-------------------1210-12-12------------------|---------------


-|-----------------------------------------------------------------|----------
-|-----------------------------------------------------------------|----------
-|--2--0--------2---2--0--------2---2--0--------2---2--0--------2--|----------
-|--------3--0------------3--0------------3--0------------3--0-----|----------
-|-----------------------------------------------------------------|----------
-|-----------------------------------------------------------------|----------

G1 Off the top ties them off fills it up


-|--5--3--------5---5--3------------5--3--------5---5--3--------5--|----------
-|--------6--3------------6--3--6-3-------6--3------------6--3-----|----------
-|-----------------------------------------------------------------|----------
-|-----------------------------------------------------------------|----------
-|-----------------------------------------------------------------|----------
-|-----------------------------------------------------------------|----------


-|-----------------------------------------------------------------|----------
-|--------------------------------------------10-------------------|----------
-|-------------------------------10-----------10-------------------|----------
-|-------------------------------12--------------12----------------|----------
-|-----------------------------------------------------------------|----------
-|-----------------------------------------------------------------|----------


-|------------------------------------------------------------------|---------
-|------------------------------------------------------------------|---------
-|---2--0--------2---2--0--------2---2--0--------2---2--0--------2--|---------
-|---------3--0------------3--0------------3--0------------3--0-----|---------
-|------------------------------------------------------------------|---------
-|------------------------------------------------------------------|---------

G1 With his past, gets carried away oh half his life


-|---5--3--------5---5--3--------5---5--3--------5---5--3--------5--|---------
-|---------6--3------------6--3------------6--3------------6--3-----|---------
-|------------------------------------------------------------------|---------
-|------------------------------------------------------------------|---------
-|------------------------------------------------------------------|---------
-|------------------------------------------------------------------|---------


-|------------------------------------------------------------------|---------
-|----------------------------------12-10---------------------------|---------
-|----------------------------------12-10-------12-----------------|---------
-|----------------------------------------12-12---------------------|---------
-|------------------------------------------------------------------|---------
-|------------------------------------------------------------------|---------


-|-----------------------------------------------------------------|----------
-|-----------------------------------------------------------------|----------
-|--2--0--------2---2--0--------2---2--0--------2---2--0--------2--|----------
-|--------3--0------------3--0------------3--0------------3--0-----|----------
-|-----------------------------------------------------------------|----------
-|-----------------------------------------------------------------|----------

G1 A-hand me down wasted away oh he fills it up


-|--5--3--------5---5--3--------5---5--3--------5---5--3--------5--|----------
-|--------6--3------------6--3------------6--3------------6--3-----|----------
-|-----------------------------------------------------------------|----------
-|-----------------------------------------------------------------|----------
-|-----------------------------------------------------------------|----------
-|-----------------------------------------------------------------|----------


-|--------------10-----10-----------10-----------------------------|----------
-|--------------10-----10-12-----10-10-----------------------------|----------
-|----------------12-10---12-----10-10-12--------------------------|----------
-|--------------------------12-12---------12-12-12-----------------|----------
-|----------------------------------------------12-----------------|----------
-|-----------------------------------------------------------------|----------


-|------------------------------------------------------------------|---------
-|---------------------------------------------------0--1-----------|---------
-|---2--0--------2---2--0--------2---2--0--------2--------2-----2---|---------
-|---------3--0------------3--0------------3--0---------------0---0-|---------
-|------------------------------------------------------------------|---------
-|------------------------------------------------------------------|---------

G1 With the love of a girl


-|---5--3--------5---5--3--------5---5--3--------5---7--8-5-----5---|---------
-|---------6--3------------6--3------------6--3---------------3---3-|---------
-|------------------------------------------------------------------|---------
-|------------------------------------------------------------------|---------
-|------------------------------------------------------------------|---------
-|------------------------------------------------------------------|---------


-|------------------------------------------------------------------|---------
-|-----------------10--------------------------------10-------------|---------
-|-12b14r12-10-----10--------------------------------10-------------|---------
-|-------------12--------------------------------x-----------12-----|---------
-|-----------------------------------------x-x---x------------------|---------
-|-----------------------------------------x-x---x------------------|---------


-|------------------------------------------------------|---------------------
-|--0---0-------------0---1-----------------------------|---------------------
-|---------2-----2-----------2------2----2--0--------2--|---------------------
-|-------------0---0--------------0---0--------3--0-----|---------------------
-|------------------------------------------------------|---------------------
-|------------------------------------------------------|---------------------


-|--5-3----5-----5----7---8--5------5----5--3--------5--|---------------------
-|-------3-----3---3--------------3---3--------6--3-----|---------------------
-|------------------------------------------------------|---------------------
-|------------------------------------------------------|---------------------
-|------------------------------------------------------|---------------------
-|------------------------------------------------------|---------------------


-|------------------------------------------------------|---------------------
-|--12-10--------10--------x-10b--------------------12--|---------------------
-|--12-10--------10--------x-10b--------------------12--|---------------------
-|--------12-12-----------------12------12-10-----------|---------------------
-|------------------------------------------------------|---------------------
-|--------------------------------------------12-12-----|---------------------


-|-----------------------------------------------------------------------|----
-|--0---1---------------0h1---0-------------0--1-------------------------|----
-|---------2-------2-------------2-----2---------2----2---2--0--------2--|----
-|---------------0---0---------------0---0----------0---0-------3--0-----|----
-|-----------------------------------------------------------------------|----
-|-----------------------------------------------------------------------|----

G1 Oh


-|--7---8--5-------5----5--3-----5-----5----7--8-5----5---5--3--------5--|----
-|---------------3---3--------3------3---3----------3---3-------6--3-----|----
-|-----------------------------------------------------------------------|----
-|-----------------------------------------------------------------------|----
-|-----------------------------------------------------------------------|----
-|-----------------------------------------------------------------------|----


-|-----------------------------------------------------------------------|----
-|--10----------------------------------------------10-13b15r13-------x--|----
-|--10----------------x-12------12b14r12p10---------10----------10----x--|----
-|---------10--12-----x-12-10-10-----------12-10h12-------------10-12-x--|----
-|-----------------------------------------------------------------------|----
-|-----------------------------------------------------------------------|----


-|-----------------------------------------------------------------|----------
-|-----------------------------------------------------------------|----------
-|--2--0--------2---2--0--------2---2--0--------2---2--0--------2--|----------
-|--------3--0------------3--0------------3--0------------3--0-----|----------
-|-----------------------------------------------------------------|----------
-|-----------------------------------------------------------------|----------

G1 He lifted along drilled the pain with money to burn


-|--5--3--------5---5--3--------5---5--3--------5------------------|----------
-|--------6--3------------6--3------------6--3---------------------|----------
-|-----------------------------------------------------------------|----------
-|-----------------------------------------------------------------|----------
-|-----------------------------------------------------------------|----------
-|-----------------------------------------------------------------|----------


-|-----------------------------------------------------------------|----------
-|---12-----------------------------10---------------10--12-----10-|----------
-|---12-----------------------------10--10h12p10-----10--12-----10-|----------
-|-------------12-------------------------------12-12--------12----|----------
-|-----------------------------------------------------------------|----------
-|-----------------------------------------------------------------|----------


Chorus:


-|--------0-------|-1----------------0-------------------0-----------|--------
-|---3--1---1-0-1-|-1---1----1-------1-1---1--3----3--1-----1--0--1--|--------
-|-2--------------|-2----------------2---2------2--------------------|--------
-|----------------|-3----------------2-------------------------------|--------
-|----------------|-x----------------0-------------------------------|--------
-|----------------|-3------------------------------------------------|--------

G1 How he makes his getaway


-|--------0-------|-5----------------5-------------------------------|--------
-|-3-3--1---1-0-1-|-6----------------5---------3---------------------|--------
-|----------------|-5----------------5---------2---------------------|--------
-|----------------|-7----------------7---------0---------------------|--------
-|----------------|-8----------------7---------0---------------------|--------
-|----------------|------------------7---------0---------------------|--------


-|----------------|-1----------/-----5------------------------------|--------
-|-10---x---------|-1----------/-----5--------3---------------------|--------
-|-10---x---------|-2----------/-----5--------2---------------------|--------
-|----------------|-3----------/-----7--------0---------------------|--------
-|----------------|----------------------------0---------------------|--------
-|----------------|----------------------------0---------------------|--------


-|--1----------------0-------------1-------------0---------------12^--|-------
-|--1---1----1-------1----1---1----1----1---1----1----1---1---1-------|-------
-|--2----------------2-------------2-------------2--------------------|-------
-|--3----------------2-------------3-------------2--------------------|-------
-|--x----------------0-------------x-------------0--------------------|-------
-|--3------------------------------3----------------------------------|-------

G1 How he makes his getaway


-|--5----------------5-------------5-------------5--------------------|-------
-|--6----------------5-------------6-------------5--------------------|-------
-|--5----------------5-------------5-------------5--------------------|-------
-|--7----------------7-------------7-------------7--------------------|-------
-|--8----------------7-------------8-------------7--------------------|-------
-|-------------------7---------------------------7--------------------|-------


-|--1----------/-----5-------------1--------/----5--------------------|-------
-|--1----------/-----5-------------1--------/----5--------------------|-------
-|--2----------/-----5-------------2--------/----5--------------------|-------
-|--3----------/-----7-------------3--------/----7--------------------|-------
-|--------------------------------------------------------------------|-------
-|--------------------------------------------------------------------|-------


Bridge:


-|----------------------------------------------------------------|-----------
-|-------0--1--------0h1p0--0--------0--1-------------------------|-----------
-|----2--------2--2------------2--2--------2----2---2--0--------2-|-----------
-|-0------------------------------------------0---0-------3--0----|-----------
-|----------------------------------------------------------------|-----------
-|----------------------------------------------------------------|-----------


-|----5--7--8--5--5--5--3------5--5--7--8--5----5---5--3--------5-|-----------
-|-3------------------------3-----------------3---3-------6--3----|-----------
-|----------------------------------------------------------------|-----------
-|----------------------------------------------------------------|-----------
-|----------------------------------------------------------------|-----------
-|----------------------------------------------------------------|-----------


-|----------------------------------------------------------------|-----------
-|----------------------------------------------------------------|-----------
-|-------------------------------------------12p10h12--12p10h12---|-----------
-|------------12--0-0--12--12--12--12--x-12----------12--------12-|-----------
-|----------------------------------------------------------------|-----------
-|----------------------------------------------------------------|-----------


-|-------------------------------------------------------------------------|--
-|---0--1--------------0h1--0--------------0--1----------------------------|--
-|---------2-----2-------------2-----2-----------2-----2-----2--0--------2-|--
-|------------0-----0-------------0-----0-----------0-----0--------3--0----|--
-|-------------------------------------------------------------------------|--
-|-------------------------------------------------------------------------|--


-|---7--8--5-----5-----5-3-----5-----5-----7--8--5-----5-----5--3--------5-|--
-|------------3-----3-------3-----3-----3-----------3-----3--------6--3----|--
-|-------------------------------------------------------------------------|--
-|-------------------------------------------------------------------------|--
-|-------------------------------------------------------------------------|--
-|-------------------------------------------------------------------------|--


-|-------------------------------------------------------------------------|--
-|------------------------------------13b15r13-10--------------------------|--
-|12p10h12--12p10h12--12p10h12-----10b-----------12b14r12p10---10-------10-|--
-|--------12--------12--------12-10-------------------------12----12-12----|--
-|-------------------------------------------------------------------------|--
-|-------------------------------------------------------------------------|--


-|--------------------------------------------------------------------------|-
-|---0--1--------------0h1--0--------------0--1-----------------------------|-
-|---------2-----2-------------2-----2-----------2-----2-----2--0--------2--|-
-|------------0-----0-------------0-----0-----------0-----0--------3--0-----|-
-|--------------------------------------------------------------------------|-
-|--------------------------------------------------------------------------|-


-|---7--8--5-----5-----5--3----5-----5-----7--8--5-----5-----5--3--------5--|-
-|------------3-----3--------3----3-----3-----------3-----3--------6--3-----|-
-|--------------------------------------------------------------------------|-
-|--------------------------------------------------------------------------|-
-|--------------------------------------------------------------------------|-
-|--------------------------------------------------------------------------|-


-|--------------------------------------------------------------------------|-
-|-13-13-12----------------------10----13b15r13-10--------------------------|-
-|-14-14-12-10-------12b14r12-12-10---------------12b14r12p10---------------|-
-|------------12-xxxx------------10-12-----------------------12-10h12-12-12-|-
-|---------------xxxx-------------------------------------------------12-12-|-
-|--------------------------------------------------------------------12-12-|-


-|-------------------------------------------------------------------------|--
-|---0--1--------------0h1--0--------------0--1----------------------------|--
-|---------2-----2-------------2-----2-----------2-----2-----2--0--------2-|--
-|------------0-----0-------------0-----0-----------0-----0--------3--0----|--
-|-------------------------------------------------------------------------|--
-|-------------------------------------------------------------------------|--

G1 Oh


-|---7--8--5-----5-----5--3----5-----5-----7--8--5-----5-----5--3--------5-|--
-|------------3-----3--------3----3-----3-----------3-----3--------6--3----|--
-|-------------------------------------------------------------------------|--
-|-------------------------------------------------------------------------|--
-|-------------------------------------------------------------------------|--
-|-------------------------------------------------------------------------|--


-|-------------------------------------------------------------------------|--
-|-10-10-10--------10-10-10-----------------------13b15r13-10--------------|--
-|-10-10-10--------10-10-10---------10-12b14-10--------------12b14r12p10---|--
-|---------12--12----------12--12-12------------12----------------------12-|--
-|---------12--12----------------------------------------------------------|--
-|---------12--12----------------------------------------------------------|--


Verse:


-|------------------------------------------------------------------|---------
-|------------------------------------------------------------------|---------
-|--2--0--------2---2--0--------2---2--0--------2---2--0--------2---|---------
-|--------3--0------------3--0------------3--0------------3--0------|---------
-|------------------------------------------------------------------|---------
-|------------------------------------------------------------------|---------

G1 He draws a path heavy the thought quarter to four


-|--5--3--------5---5--3--------5---5--3--------5---5--3--------5---|---------
-|--------6--3------------6--3------------6--3------------6--3------|---------
-|------------------------------------------------------------------|---------
-|------------------------------------------------------------------|---------
-|------------------------------------------------------------------|---------
-|------------------------------------------------------------------|---------


-|------------------------------------------------------------------|---------
-|----------------10--12-10-------x---10-10---------10-10-----------|---------
-|----------------10--12-10-------x---10-10---------10-10-----10----|---------
-|-12p10----10-------------12-12------------------------------10----|---------
-|------------------------------------------------------------------|---------
-|--------------------------------------------------------12--------|---------


-|-----------------------------------------------------------------|----------
-|-----------------------------------------------------------------|----------
-|--2--0--------2---2--0--------2---2--0--------2---2--0--------2--|----------
-|--------3--0------------3--0--0---------3--0------------3--0-----|----------
-|-----------------------------------------------------------------|----------
-|-----------------------------------------------------------------|----------

G1 Fills his night with the thought of a girl


-|--5--3--------5---5--3--------5---5--3--------5---5--3--------5--|----------
-|--------6--3------------6--3------------6--3------------6--3-----|----------
-|-----------------------------------------------------------------|----------
-|-----------------------------------------------------------------|----------
-|-----------------------------------------------------------------|----------
-|-----------------------------------------------------------------|----------


-|-----------------------------------------------------------------|----------
-|-12-10------------12---10----------------------------------------|----------
-|-12-10------------12---10-------12b14-12-10----------------------|----------
-|------12-12----------------12---------------12vvvvvvvvvvvvvvvvvv-|----------
-|-----------------------------------------------------------------|----------
-|-----------------------------------------------------------------|----------


Chorus:


-|-------0-----------|-1----------------0----------------------0-----------|--
-|-3--1-----1--0--1--|-1----1----1------1----1----1------3--1-----1--0--1--|--
-|-------------------|-2----------------2-------------2--------------------|--
-|-------------------|-3----------------2----------------------------------|--
-|-------------------|-x----------------0----------------------------------|--
-|-------------------|-3---------------------------------------------------|--

G1 How he makes his getaway


-|-------0-----------|-5----------------5----------------------------------|--
-|-3--1-----1--0--1--|-6----------------5-------------3--------------------|--
-|-------------------|-5----------------5-------------2--------------------|--
-|-------------------|-7----------------7-------------0--------------------|--
-|-------------------|-8----------------7-------------0--------------------|--
-|-------------------|------------------7-------------0--------------------|--


-|-------------------|-1----------/-----5----------------------------------|--
-|-------------------|-1----------/-----5----------------------------------|--
-|-------------------|-2----------/-----5----------------------------------|--
-|-12----------------|-3----------/-----7----------------------------------|--
-|-------------------|--------------------------------5--------------------|--
-|-12----------------|-----------------------------------------------------|--


-|--1----------------0--------------------------------|-----------------------
-|--1----1----1------1----1----1------1-----1--0--1---|-----------------------
-|--2----------------2--------------------------------|-----------------------
-|--3----------------2--------------------------------|-----------------------
-|--x----------------0--------------------------------|-----------------------
-|--3-------------------------------------------------|-----------------------

G1 How he makes his getaway


-|--5----------------5-------------------0------------|-----------------------
-|--6----------------5----5--------3--1-----1--0--1---|-----------------------
-|--5----------------5--------------------------------|-----------------------
-|--7----------------7--------------------------------|-----------------------
-|--8----------------7--------------------------------|-----------------------
-|-------------------7--------------------------------|-----------------------


-|--------------/----5--------------------------------|-----------------------
-|--1-----------/----5--------------------------------|-----------------------
-|--2-----------/----5--4b5r4b5r4b5r4b5r4b5r4b5r4b5r4-|-----------------------
-|--3-----------/----7--------------------------------|-----------------------
-|--3-------------------------------------------------|-----------------------
-|----------------------------------------------------|-----------------------


-|--1----------------0-------------1-------------0------------------|---------
-|--1----1----1------1----1---1----1----1---1----1--------1---------|---------
-|--2----------------2-------------2-------------2---2-------2------|---------
-|--3----------------2-------------3-------------2------------------|---------
-|--x----------------0-------------x-------------0------------------|---------
-|--3------------------------------3--------------------------------|---------

G1 How he makes his getaway getaway


-|--5----------------5-------------5-------------5------------------|---------
-|--6----------------5-------------6-------------5------------------|---------
-|--5----------------5-------------5-------------5------------------|---------
-|--7----------------7-------------7-------------7------------------|---------
-|--8----------------7-------------8-------------7------------------|---------
-|-------------------7---------------------------7------------------|---------


-|--1----------/-----5-------------1--------/----5------------------|---------
-|--1----------/-----5-------------1--------/----5------------------|---------
-|--2----------/-----5-------------2--------/----5------------------|---------
-|--3----------/-----7-------------3--------/----7-------------5b6r5|---------
-|------------------------------------------------------------------|---------
-|------------------------------------------------------------------|---------


Outro:


-|-----------0-------------------------------------------------|--------------
-|-----0--1-------1--1--1---0--0-------------------------------|--------------
-|---------------------------------2--2--2--2------------------|--------------
-|--0----------------------------------------------------------|--------------
-|-------------------------------------------------------------|--------------
-|-------------------------------------------------------------|--------------


-|-----7--8--5---5---5-3---5----5---7-8-5---5---5--3--------5--|--------------
-|-------------3---3-----3----3---3-------3---3-------6--3-----|--------------
-|-------------------------------------------------------------|--------------
-|-------------------------------------------------------------|--------------
-|-------------------------------------------------------------|--------------
-|-------------------------------------------------------------|--------------


-|-----------------------------------------------------------|----------------
-|---0--1---0--1-------------------------------0--1--0-------|----------------
-|----------------2-----2--0--2----------0--2-----------2----|----------------
-|-----------------------------------------------------------|----------------
-|-----------------------------------------------------------|----------------
-|-----------------------------------------------------------|----------------


-|---7--8-5----5---5-3---5----5---7--8-5----5---5--3---------|----------------
-|-----------3---3-----3----3---3---------3---3-------6--3---|----------------
-|-----------------------------------------------------------|----------------
-|-----------------------------------------------------------|----------------
-|-----------------------------------------------------------|----------------
-|-----------------------------------------------------------|----------------


-|-----------------------------------------------------------|----------------
-|-------------------------10-------------------12-10--------|----------------
-|-------------------------10--12b14-12-10------12-10--------|----------------
-|----------------------------------------12-10------12-12-x-|----------------
-|-------------------------------------------10------------x-|----------------
-|-----------------------------------------------------------|----------------


-|--------------------------------------------------------------------------|-
-|--3--1--0-------------3----1---0-----------------3---1---0----------------|-
-|-----------2--0h2------------------2---0---------------------2------0h2---|-
-|-----------------------------------------3-0----------------------------0-|-
-|--------------------------------------------------------------------------|-
-|--------------------------------------------------------------------------|-


-|-10--8--7------------10----8---7----------------10---8---7----------------|-
-|----------10--8h10----------------10---8p6------------------10------8p6---|-
-|------------------7------------------------7----------------------------7-|-
-|--------------------------------------------------------------------------|-
-|--------------------------------------------------------------------------|-
-|--------------------------------------------------------------------------|-


-|--------------------------------------------------------------------------|-
-|-10----------------13b15--13--10----------10--13b15--13--10---------------|-
-|-10---x---------------------------12-10h12-------------------12--10-12-10-|-
-|------x-------------------------------------------------------------------|-
-|--------------------------------------------------------------------------|-
-|--------------------------------------------------------------------------|-


-|---------------------------------------------------------------|------------
-|---3----1----0--------------------3----1----0------------------|------------
-|------------------2------0-----------------------2------0------|------------
-|---------------------------3-0----------------------------3-0--|------------
-|---------------------------------------------------------------|------------
-|---------------------------------------------------------------|------------


-|--10----8----7-------------------10----8----7------------------|------------
-|-----------------10------8p6--------------------10------8p6----|------------
-|-----------------------------7------------------------------7--|------------
-|---------------------------------------------------------------|------------
-|---------------------------------------------------------------|------------
-|---------------------------------------------------------------|------------


-|---------------------------------------------------------------|------------
-|-13b15--13--10-----------------13b15--13---10------------------|------------
-|-----------------12--------10-------------------12--10-12-10---|------------
-|----------------------10h12------------------------------------|------------
-|---------------------------------------------------------------|------------
-|---------------------------------------------------------------|------------


-|--------------------------------------------------------------|-------------
-|---3----1----0-----------------------3---1---0----------------|-------------
-|------------------2---------0h2------------------2-----0h2----|-------------
-|--------------------------------0--------------------------0--|-------------
-|--------------------------------------------------------------|-------------
-|--------------------------------------------------------------|-------------


-|--10----8----7-------7---------10--------8---7----------------|-------------
-|-----------------10-----------------------------10----8h10----|-------------
-|-----------------------------------------------------------7--|-------------
-|--------------------------------------------------------------|-------------
-|--------------------------------------------------------------|-------------
-|--------------------------------------------------------------|-------------


-|--------------------------------------------------------------|-------------
-|-13b16--r15--10-----------------------------------------------|-------------
-|-------b14------12b14--12-10-------------12--12--------------|-------------
-|------------------------------12----------12--12-10h12--------|-------------
-|--------------------------------------------------------------|-------------
-|--------------------------------------------------------------|-------------

G3 pre-bend


-|-----------------------------------------------------------|----------------
-|---3---1---0-----------------3-----1-----0-----------------|----------------
-|---------------2----0h2------------------------2----0h2----|----------------
-|------------------------0-------------------------------0--|----------------
-|-----------------------------------------------------------|----------------
-|-----------------------------------------------------------|----------------


-|--10---8---7----------------10-----8-----7-----------------|----------------
-|--------------10----8h10----------------------10----8h10---|----------------
-|------------------------7-------------------------------7--|----------------
-|-----------------------------------------------------------|----------------
-|-----------------------------------------------------------|----------------
-|-----------------------------------------------------------|----------------


-|-----------------------------------------------------------|----------------
-|---------------------------1312----------12-----x-x-------|----------------
-|--10------------12-x--x-x--1312--10------12-x-x-x-x-------|----------------
-|--10--10h12p10--12-x--x-x--1312--10--12--12-x-x-----10h12-|----------------
-|---------------------------------------------x-x-----------|----------------
-|--------------------------------------12-------------------|----------------


-|-----------------------------------------------------------------|----------
-|-----------------------------------------------------------------|----------
-|--2--0--------2---2--0--------2---2--0--------2---2--0--------2--|----------
-|--------3--0------------3--0------------3--0------------3--0-----|----------
-|-----------------------------------------------------------------|----------
-|-----------------------------------------------------------------|----------


-|--10----8----7--------------------10----8----7-------------------|----------
-|------------------10-----8h10---------------------10-----8h10----|----------
-|------------------------------7-------------------------------7--|----------
-|-----------------------------------------------------------------|----------
-|-----------------------------------------------------------------|----------
-|-----------------------------------------------------------------|----------


-|-----------------------------------------------------------------|----------
-|--10-----1312------------------------------12-10---10--12-10----|----------
-|--10h12--1312------------------------------12-10---10--12-10----|----------
-|---------------12---12-----12p10--12--------------------------12-|----------
-|-----------------------10------------12-10-----------------------|----------
-|-----------------------------------------------------------------|----------


-|------------------------------------------------------------------|---------
-|------------------------------------------------------------------|---------
-|---2--0--------2---2--0--------2---2--0--------2---2--0--------2--|---------
-|---------3--0------------3--0------------3--0------------3--0-----|---------
-|------------------------------------------------------------------|---------
-|------------------------------------------------------------------|---------


-|--10----8----7---------------------10----8----7-------------------|---------
-|------------------10-----8h10----------------------10-----8h10----|---------
-|------------------------------7--------------------------------7--|---------
-|------------------------------------------------------------------|---------
-|------------------------------------------------------------------|---------
-|------------------------------------------------------------------|---------


-|-10-----1312-----10----------------------------------------------|---------
-|-10-----1312-----10----------------------------------------------|---------
-|--------1312-----10----------------------------------10tr12-----|---------
-|------------------------12---12--12--------10-----12--------------|---------
-|--------------------------------------10h12--10h12----------------|---------
-|------------------------------------------------------------------|---------

G3 trill


-|----------------------------------------------------------------------||----
-|--3----1----0----------------0h3p0h3p0h3p0h3p0h3p0h3p0h3p0h3p0h3p0h3-||----
-|-----------------2-----0h2--------------------------------------------||----
-|---------------------------0------------------------------------------||----
-|----------------------------------------------------------------------||----
-|----------------------------------------------------------------------||----

G1 not sure, sounds close enough ) Fade out


-|-10----8----7----------------0h3p0h3p0h3p0h3p0h3p0h3p0h3p0h3p0h3p0h3-||----
-|----------------10-----8h10-------------------------------------------||----
-|---------------------------7------------------------------------------||----
-|----------------------------------------------------------------------||----
-|----------------------------------------------------------------------||----
-|----------------------------------------------------------------------||----

G2 Fade out


-|--10-----12/13--------------------------------------------------------||----
-|--10-----12/13--------------------------------------------------------||----
-|--10-----12/13----10--------------------------------------------------||----
-|------------------10--------------------------------------------------||----
-|----------------------------------------------------------------------||----
-|----------------------------------------------------------------------||----

To play the most songs, including Of the Girl by Pearl Jam by ukulele, the most crucial basic ukulele chords to learn are C chord, D chord, G chord, and Em chord.
These set you up to play a ton of songs, and each of them is easy to learn.

If you are searching for Spin the Black Circle ukulele chords, you’ve visit to the right site.
You can play versatile instrument Spin the Black Circle using ukulele or guitar.
This song by Pearl Jam can also be played by that instruments.
=

Spin the Black Circle chords has rhythm and included in Vitalogy (1994) album.
You can also get another musical genres, including jazz ukulele chords, country music ukulele chords, pop ukulele chords, world music ukulele chords, and rock ukulele chords here.

Spin the Black Circle by Pearl Jam Ukulele Chords


Author/Artist: Pearl Jam
Title: Spin The Black Circle
Album: Vitalogy
Transcribed by: Evan Cowan
Email: ecowan@uclink4.berkeley.edu


-|-----------------------------------------------------------------------|----
-|-----------------------------------------------------------------------|----
-|-------4--4-4-4-4-4-4-4-4-4-4-4-------4--4-4-4-4-4-4-4-4-4-4-4-4-4-4-4-|----
-|-------4--4-4-4-4-4-4-4-4-4-4-4-------4--4-4-4-4-4-4-4-4-4-4-4-4-4-4-4-|----
-|-0---0-2--2-2-2-2-2-2-2-2-2-2-2-0---0-2--2-2-2-2-2-2-2-2-2-2-2-2-2-2-2-|----
-|---3------------------------------3------------------------------------|----

Intro, G1


-|-----------------------------------------------------------------------|----
-|-----------------------------------------------------------------------|----
-|--------------------------------------4--4-4-4-4-4-4-4-4-4-4-4-4-9-9-9-|----
-|--------------------------------------4--4-4-4-4-4-4-4-4-4-4-4-4-9-9-9-|----
-|--------------------------------0---0-2--2-2-2-2-2-2-2-2-2-2-2-2-7-7-7-|----
-|----------------------------------3------------------------------------|----

Intro, G2


-|-------------------------------------------------------------------|--------
-|-------------------------------------------------------------------|--------
-|-109--8--7--5--------------------109--8--7--5--------------------|--------
-|-109--8--7--5--------------------109--8--7--5--------------------|--------
-|--87--6--5--3---------------------87--6--5--3--------------------|--------
-|-------------------------------------------------------------------|--------


-|---------------------8-8------8-8---------------------8-8----------|--------
-|----------------8----8-8-8----8-8----------------8----8-8--8-------|--------
-|---------------10b12----10b12-------------------10b12-----10b12r10-|--------
-|-------------------------------------------------------------------|--------
-|-------------------------------------------------------------------|--------
-|-------------------------------------------------------------------|--------


-|-----------------------------------|-----------------------------------|----
-|-----------------------------------|-----------------------------------|----
-|-109--8--7--5---------------------|-109--8--7--5---------------------|----
-|-109--8--7--5---------------------|-109--8--7--5---------------------|----
-|--87--6--5--3---------------------|--87--6--5--3---------------------|----
-|-----------------------------------|-----------------------------------|----

G1 3x


-|---------------------8-8-------8-8-|----------------8----8-8--8----8-8-|----
-|----------------8----8-8--8----8-8-|---------------11b13-----11b13-----|----
-|---------------10b12-----10b12-----|-----------------------------------|----
-|-----------------------------------|-----------------------------------|----
-|-----------------------------------|-----------------------------------|----
-|-----------------------------------|-----------------------------------|----

G2 3x


-|---------------------------------------------------------------------|------
-|---------------------------------------------------------------------|------
-|-109--8--7--5---------------------109--8--7--5---------------------|------
-|-109--8--7--5---------------------109--8--7--5---------------------|------
-|--87--6--5--3----------------------87--6--5--3---------------------|------
-|---------------------------------------------------------------------|------


-|---------------------8-8-------8-8--------------------8-8-------8-8--|------
-|----------------8----8-8--8----8-8---------------8----8-8--8----8-8--|------
-|---------------10b12-----10b12------------------10b12-----10b12------|------
-|---------------------------------------------------------------------|------
-|---------------------------------------------------------------------|------
-|---------------------------------------------------------------------|------


-|------------------------------------------------------------|---------------
-|------------------------------------------------------------|---------------
-|-------4----------------------------------------------------|---------------
-|-------4--4-4-4-4-4-4-4-4-4-4-4-4-4-4-4-4-4-4-4-4-4-4-------|---------------
-|-0---0-2--2-2-2-2-2-2-2-2-2-2-2-2-2-2-2-2-2-2-2-2-2-2-0---0-|---------------
-|---3----------------------------------------------------3---|---------------

G1 See this needle a see my hand


-|--------------------------------------------------------------|-------------
-|--------------------------------------------------------------|-------------
-|-4------------------------------------------------------2-2-2-|-------------
-|-4--4-4-4-4-4-4-4-4-4-4-4-4-4-4-4-4-4-4-4-4-4-4-4-4-4-4-2-2-2-|-------------
-|-2--2-2-2-2-2-2-2-2-2-2-2-2-2-2-2-2-2-2-2-2-2-2-2-2-2-2-0-0-0-|-------------
-|--------------------------------------------------------------|-------------

G1 Drop drop dropping it down oh so gently


-|--0-----------------------------------------------------------|-------------
-|--3-----------------------------0-----------------------------|-------------
-|--4--------------------------x/-------------------------------|-------------
-|--4--------------------------x/-------------------------------|-------------
-|--2--------------------------x/-------------------------------|-------------
-|----------------------------------------------/12------7-5-7-|-------------

G2 (reverse strum)


-|------------------------------------------------------------------|---------
-|------------------------------------------------------------------|---------
-|----7--7-7--7-7-7-7-7-7-7-7-7-7-7-7-7-7-7-7-7-7-7-7-7-7-7-7-------|---------
-|----7--7-7--7-7-7-7-7-7-7-7-7-7-7-7-7-7-7-7-7-7-7-7-7-7-7-7-------|---------
-|----5--5-5--5-5-5-5-5-5-5-5-5-5-5-5-5-5-5-5-5-5-5-5-5-5-5-5-------|---------
-|------------------------------------------------------------7-5-7-|---------

G1+G2 Well here it comes I touch the plane


-|-----------------------------------------------------------------|----------
-|-----------------------------------------------------------------|----------
-|-7--7-7--7-7-7-7-7-7-7-7-7-7-7-7-7-7-7-7-7-7-7-7-7-7-7-7-7-7-7-7-|----------
-|-7--7-7--7-7-7-7-7-7-7-7-7-7-7-7-7-7-7-7-7-7-7-7-7-7-7-7-7-7-7-7-|----------
-|-5--5-5--5-5-5-5-5-5-5-5-5-5-5-5-5-5-5-5-5-5-5-5-5-5-5-5-5-5-5-5-|----------
-|-----------------------------------------------------------------|----------

Turn me up Won’t turn you away


-|-----------------------------------------------------------------------|----
-|-----------------------------------------------------------------------|----
-|-109--8--7--5---------------------109--8--7--5-----------------------|----
-|-109--8--7--5---------------------109--8--7--5-----------------------|----
-|--87--6--5--3----------------------87--6--5--3-----------------------|----
-|-----------------------------------------------------------------------|----

G1 Spin Spin Spin the black circle


-|---------------------8-8-------8-8-------------------------------------|----
-|----------------8----8-8--8----8-8-------------------------------------|----
-|---------------10b12-----10b12-----------------------------------------|----
-|-----------------------------------------------------------------------|----
-|-----------------------------------------------------------------------|----
-|-----------------------------------------------------------------------|----


-|--------------------------------------------------------------------------|-
-|--------------------------------------------------------------------------|-
-|-109--8--7--5---------------------109-8-7-5-----------------------------|-
-|-109--8--7--5---------------------109-8-7-5-----------------------------|-
-|--87--6--5--3----------------------87-6-5-3-----------------------------|-
-|--------------------------------------------------------------------------|-

G1 Spin Spin Spin the black spin the black


-|---------------------8-8-------8-8----------------------------------------|-
-|----------------8----8-8--8----8-8----------------------------------------|-
-|---------------10b12-----10b12--------------------------------------------|-
-|--------------------------------------------------------------------------|-
-|--------------------------------------------------------------------------|-
-|--------------------------------------------------------------------------|-


-|-----------------------------------------------------------------------|----
-|-----------------------------------------------------------------------|----
-|-109--8--7--5---------------------109--8--7--5-----------------------|----
-|-109--8--7--5---------------------109--8--7--5-----------------------|----
-|--87--6--5--3----------------------87--6--5--3-----------------------|----
-|-----------------------------------------------------------------------|----

G1 Spin Spin Spin the black circle


-|---------------------8-8-------8-8-------------------------------------|----
-|----------------8----8-8--8----8-8-------------------------------------|----
-|---------------10b12-----10b12-----------------------------------------|----
-|-----------------------------------------------------------------------|----
-|-----------------------------------------------------------------------|----
-|-----------------------------------------------------------------------|----


-|-----------------------------------------------------------------------|----
-|-----------------------------------------------------------------------|----
-|-109--8--7--5---------------------109--8--7--5-----5-5------5-5-5----|----
-|-109--8--7--5---------------------109--8--7--5-----5-5------5-5-5----|----
-|--87--6--5--3----------------------87--6--5--3-----3-3------3-3-3----|----
-|-----------------------------------------------------------------------|----

G1 Spin Spin Wohhhh


-|---------------------8-8-------8-8-------------------------------------|----
-|----------------8----8-8--8----8-8-------------------------------------|----
-|---------------10b12-----10b12-----------------------------------------|----
-|-----------------------------------------------------------------------|----
-|-----------------------------------------------------------------------|----
-|-----------------------------------------------------------------------|----


-|--------------------------------------------------------------|-------------
-|--------------------------------------------------------------|-------------
-|-4------------------------------------------------------------|-------------
-|-4--4-4-4-4-4-4-4-4-4-4-4-4-4-4-4-4-4-4-4-4-4-4-4-4-4-4-------|-------------
-|-2--2-2-2-2-2-2-2-2-2-2-2-2-2-2-2-2-2-2-2-2-2-2-2-2-2-2-0---0-|-------------
-|----------------------------------------------------------3---|-------------

G1 Pull it out A paper sleeve


-|----------------------------------------------------------------|-----------
-|----------------------------------------------------------------|-----------
-|-4--------------------------------------------------------2-2-2-|-----------
-|-4--4-4-4-4-4-4-4-4-4-4-4-4-4-4-4-4-4-4-4-4-4-4-4-4-4-4-4-2-2-2-|-----------
-|-2--2-2-2-2-2-2-2-2-2-2-2-2-2-2-2-2-2-2-2-2-2-2-2-2-2-2-2-0-0-0-|-----------
-|----------------------------------------------------------------|-----------

G1 Oh my joy Only you deserve conceit


-|----------------------------------------------------------------|-----------
-|----------------------------------------------------------------|-----------
-|----------------------------------------------------------------|-----------
-|--------------9b---10---------------------------x--------7-7-7-|-----------
-|------------------------------------------------x--------7-7-7-|-----------
-|------------------------------------------------x--------5-5-5-|-----------

G2 grad.bend


-|----------------------------------------------------------------|-----------
-|----------------------------------------------------------------|-----------
-|--7--7-7--7-7-7-7-7-7-7-7-7-7-7-7-7-7-7-7-7-7-7-7-7-7-7-7-------|-----------
-|--7--7-7--7-7-7-7-7-7-7-7-7-7-7-7-7-7-7-7-7-7-7-7-7-7-7-7-------|-----------
-|--5--5-5--5-5-5-5-5-5-5-5-5-5-5-5-5-5-5-5-5-5-5-5-5-5-5-5-------|-----------
-|----------------------------------------------------------7-5-7-|-----------

G1+G2 Oh so big A my whole world


-|-----------------------------------------------------------------|----------
-|-----------------------------------------------------------------|----------
-|-7--7-7--7-7-7-7-7-7-7-7-7-7-7-7-7-7-7-7-7-7-7-7-7-7-7-7-7-7-7-7-|----------
-|-7--7-7--7-7-7-7-7-7-7-7-7-7-7-7-7-7-7-7-7-7-7-7-7-7-7-7-7-7-7-7-|----------
-|-5--5-5--5-5-5-5-5-5-5-5-5-5-5-5-5-5-5-5-5-5-5-5-5-5-5-5-5-5-5-5-|----------
-|-----------------------------------------------------------------|----------

I’d rather you… Rather you… Than her


-|----------------------------------------------------------------------|-----
-|----------------------------------------------------------------------|-----
-|-109--8--7--5---------------------109--8--7--5----------------------|-----
-|-109--8--7--5---------------------109--8--7--5----------------------|-----
-|--87--6--5--3----------------------87--6--5--3----------------------|-----
-|----------------------------------------------------------------------|-----

G1 Spin Spin Spin the black circle


-|---------------------8-8-------8-8------------------------------------|-----
-|----------------8----8-8--8----8-8------------------------------------|-----
-|---------------10b12-----10b12----------------------------------------|-----
-|----------------------------------------------------------------------|-----
-|----------------------------------------------------------------------|-----
-|----------------------------------------------------------------------|-----


-|--------------------------------------------------------------------------|-
-|--------------------------------------------------------------------------|-
-|-109--8--7--5---------------------109-8-7-5-----------------------------|-
-|-109--8--7--5---------------------109-8-7-5-----------------------------|-
-|--87--6--5--3----------------------87-6-5-3-----------------------------|-
-|--------------------------------------------------------------------------|-

G1 Spin Spin Spin the black spin the black


-|---------------------8-8-------8-8----------------------------------------|-
-|----------------8----8-8--8----8-8----------------------------------------|-
-|---------------10b12-----10b12--------------------------------------------|-
-|--------------------------------------------------------------------------|-
-|--------------------------------------------------------------------------|-
-|--------------------------------------------------------------------------|-


-|----------------------------------------------------------------------|-----
-|----------------------------------------------------------------------|-----
-|-109--8--7--5---------------------109--8--7--5----------------------|-----
-|-109--8--7--5---------------------109--8--7--5----------------------|-----
-|--87--6--5--3----------------------87--6--5--3----------------------|-----
-|----------------------------------------------------------------------|-----

G1 Spin Spin Spin the black circle


-|---------------------8-8-------8-8------------------------------------|-----
-|----------------8----8-8--8----8-8------------------------------------|-----
-|---------------10b12-----10b12----------------------------------------|-----
-|----------------------------------------------------------------------|-----
-|----------------------------------------------------------------------|-----
-|----------------------------------------------------------------------|-----


-|-------------------------------------------------------------|--------------
-|-------------------------------------------------------------|--------------
-|-109--8--7--5---------------------109--8--7--5-------------|--------------
-|-109--8--7--5---------------------109--8--7--5-------------|--------------
-|--87--6--5--3----------------------87--6--5--3-------------|--------------
-|-------------------------------------------------------------|--------------

G1 Spin Spin Wohhh______


-|---------------------8-8-------8-8---------------------------|--------------
-|----------------8----8-8--8----8-8---------------------------|--------------
-|---------------10b12-----10b12-------------------------------|--------------
-|-------------------------------------------------------------|--------------
-|-------------------------------------------------------------|--------------
-|-------------------------------------------------------------|--------------


-|-------------------------------------------------------------------------|--
-|-------------------------------------------------------------------------|--
-|-------------------------------------------------------------------------|--
-|-------------------------------------------------------------------------|--
-|-10-10-10-11-11-11-10-10-9-9-9-10-10-10-9-9-8-8-8-9-9-9-8-8-7-7-7-7-7-10-|--
-|--8--8--8--9--9--9--8--8-7-7-7--8--8--8-7-7-6-6-6-7-7-7-6-6-5-5-5-5-5--8-|--

G1 Oh____________________________________________________________


-|-------------------------------------------------------------------------|--
-|-------------------------------------------------------------------------|--
-|-------------------------------------------------------------------------|--
-|-10-10-10-11-11-11-10-10-9-9-9-10-10-10-9-9-8-8-8-9-9-9-8-8-7-7-7-7-7-10-|--
-|-10-10-10-11-11-11-10-10-9-9-9-10-10-10-9-9-8-8-8-9-9-9-8-8-7-7-7-7-7-10-|--
-|-------------------------------------------------------------------------|--


-|--------------------------------------------------------------------------|-
-|--------------------------------------------------------------------------|-
-|--------------------------------------------------------------------------|-
-|--------------------------------------------------------------------------|-
-|-10-10-10-10-10-11-11-11-10-10-9-9-9-10-10-10-9-9-8-8-8-9-9-9-8-8-7-7-7-7-|-
-|--8--8--8--8--8--9--9--9--8--8-7-7-7--8--8--8-7-7-6-6-6-7-7-7-6-6-5-5-5-5-|-


-|--------------------------------------------------------------------------|-
-|--------------------------------------------------------------------------|-
-|--------------------------------------------------------------------------|-
-|-10-10-10-10-10-11-11-11-10-10-9-9-9-10-10-10-9-9-8-8-8-9-9-9-8-8-7-7-7-7-|-
-|-10-10-10-10-10-11-11-11-10-10-9-9-9-10-10-10-9-9-8-8-8-9-9-9-8-8-7-7-7-7-|-
-|--------------------------------------------------------------------------|-


-|--------|----------------------------------------------------------------|--
-|--------|----------------------------------------------------------------|--
-|--------|-4--4-4-4-4-4-4-4-4-4-4-4-4-4-4-4-4-4-4-4-4-4-4-4-4-4-4-4-------|--
-|--------|-4--4-4-4-4-4-4-4-4-4-4-4-4-4-4-4-4-4-4-4-4-4-4-4-4-4-4-4-------|--
-|--0---0-|-2--2-2-2-2-2-2-2-2-2-2-2-2-2-2-2-2-2-2-2-2-2-2-2-2-2-2-2-2-0-0-|--
-|----3---|----------------------------------------------------------------|--

G1 Oh


-|------------------------------------------------------------------|---------
-|------------------------------------------------------------------|---------
-|-7--7-7-7-7-7-7-7-7-7-7-7-7-7-7-7-7-7-7-7-7-7-7-7-7-7-7-7-7-7-7-7-|---------
-|-7--7-7-7-7-7-7-7-7-7-7-7-7-7-7-7-7-7-7-7-7-7-7-7-7-7-7-7-7-7-7-7-|---------
-|-5--5-5-5-5-5-5-5-5-5-5-5-5-5-5-5-5-5-5-5-5-5-5-5-5-5-5-5-5-5-5-5-|---------
-|------------------------------------------------------------------|---------

G1 You’re so warm______________________


-|------------------------------------------------------------------|---------
-|------------------------------------------------------------------|---------
-|-9--9-9-9-9-9-9-9-9-9-9-9-9-9-9-9-9-9-9-9-9-9-9-9-9-9-9-9-9-9-9-9-|---------
-|-9--9-9-9-9-9-9-9-9-9-9-9-9-9-9-9-9-9-9-9-9-9-9-9-9-9-9-9-9-9-9-9-|---------
-|-7--7-7-7-7-7-7-7-7-7-7-7-7-7-7-7-7-7-7-7-7-7-7-7-7-7-7-7-7-7-7-7-|---------
-|------------------------------------------------------------------|---------

G1 Ohh the ritual___________ When I


-|------------------------------------------------------------------|---------
-|------------------------------------------------------------------|---------
-|--9-9-9-9-9-9-9-9-9-9-9-9-9-9-9-9-9-9-9-9-9-9-9-9-9-9-9-9-9-9-9-9-|---------
-|--9-9-9-9-9-9-9-9-9-9-9-9-9-9-9-9-9-9-9-9-9-9-9-9-9-9-9-9-9-9-9-9-|---------
-|--7-7-7-7-7-7-7-7-7-7-7-7-7-7-7-7-7-7-7-7-7-7-7-7-7-7-7-7-7-7-7-7-|---------
-|------------------------------------------------------------------|---------

G1 Lay down your crooked arm__________


-|------------------------------------------------------------------|---------
-|------------------------------------------------------------------|---------
-|------------------------------------------------------------------|---------
-|------------------------------------------------------------------|---------
-|-10---/--11--10-9---/--10---9-8---/---9--8-------------------|---------
-|--/-------/----/--/-------/----/--/-------/---/-----12-----------|---------

G2 (trem pick all notes) trem pick while sliding


-|----------------------------------------------------------------------|-----
-|----------------------------------------------------------------------|-----
-|-109--8--7--5---------------------109--8--7--5----------------------|-----
-|-109--8--7--5---------------------109--8--7--5----------------------|-----
-|--87--6--5--3----------------------87--6--5--3----------------------|-----
-|----------------------------------------------------------------------|-----

G1 Spin Spin Spin the black circle


-|---------------------8-8-------8-8------------------------------------|-----
-|----------------8----8-8--8----8-8------------------------------------|-----
-|---------------10b12-----10b12----------------------------------------|-----
-|----------------------------------------------------------------------|-----
-|----------------------------------------------------------------------|-----
-|----------------------------------------------------------------------|-----


-|--------------------------------------------------------------------------|-
-|--------------------------------------------------------------------------|-
-|-109--8--7--5---------------------109-8-7-5-----------------------------|-
-|-109--8--7--5---------------------109-8-7-5-----------------------------|-
-|--87--6--5--3----------------------87-6-5-3-----------------------------|-
-|--------------------------------------------------------------------------|-

G1 Spin Spin Spin the black spin the black


-|---------------------8-8-------8-8----------------------------------------|-
-|----------------8----8-8--8----8-8----------------------------------------|-
-|---------------10b12-----10b12--------------------------------------------|-
-|--------------------------------------------------------------------------|-
-|--------------------------------------------------------------------------|-
-|--------------------------------------------------------------------------|-


-|-----------------------------------------------------------------|----------
-|-----------------------------------------------------------------|----------
-|-109--8--7--5----------------109--8--7--5----------------------|----------
-|-109--8--7--5----------------109--8--7--5----------------------|----------
-|--87--6--5--3-----------------87--6--5--3----------------------|----------
-|-----------------------------------------------------------------|----------

G1 Spin Spin Spin the black circle


-|----------------11p8-11p8-11p8-----------------------------------|----------
-|-----------------------------------------------------------------|----------
-|-----------------------------------------------------------------|----------
-|-----------------------------------------------------------------|----------
-|-----------------------------------------------------------------|----------
-|-----------------------------------------------------------------|----------


-|--------------------------------------------------------------------------|-
-|--------------------------------------------------------------------------|-
-|-109--8--7--5---------------------109-8-7-5-----------------------------|-
-|-109--8--7--5---------------------109-8-7-5-----------------------------|-
-|--87--6--5--3----------------------87-6-5-3-----------------------------|-
-|--------------------------------------------------------------------------|-

G1 Spin Spin Spin the black spin the black


-|---------------------8-8-------8-8----------------------------------------|-
-|----------------8----8-8--8----8-8----------------------------------------|-
-|---------------10b12-----10b12--------------------------------------------|-
-|--------------------------------------------------------------------------|-
-|--------------------------------------------------------------------------|-
-|--------------------------------------------------------------------------|-


-|-------------------------------------------------------|--------------------
-|-------------------------------------------------------|--------------------
-|--109--8--7--5----------------------------------------|--------------------
-|--109--8--7--5----------------------------------------|--------------------
-|---87--6--5--3----------------------------------------|--------------------
-|-------------------------------------------------------|--------------------

G1 Spin the black spin the black spin the black circle


-|-------------------------------------------------------|--------------------
-|---11p8h11p8h11p8h11p8h11p8h11p8h11p8h11p8h11p8h11p8---|--------------------
-|-------------------------------------------------------|--------------------
-|-------------------------------------------------------|--------------------
-|-------------------------------------------------------|--------------------
-|-------------------------------------------------------|--------------------


-|----------------------------------------------------------------------|-----
-|----------------------------------------------------------------------|-----
-|-109--8--7--5---------------------109--8--7--5----------------------|-----
-|-109--8--7--5---------------------109--8--7--5----------------------|-----
-|--87--6--5--3----------------------87--6--5--3----------------------|-----
-|----------------------------------------------------------------------|-----

G1 Spin the black circle Spin the black circle


-|-------------------------------------8------------8--------------8----|-----
-|-11p8h11p8h11p8h11p8h11p8h11p8h11p8-11b13--------11b13----------11b13-|-----
-|----------------------------------------------------------------------|-----
-|----------------------------------------------------------------------|-----
-|----------------------------------------------------------------------|-----
-|----------------------------------------------------------------------|-----


-|-------------------------------------------------------------------------|--
-|-------------------------------------------------------------------------|--
-|-109--8--7--5---------------------109--8--7--5-------------------------|--
-|-109--8--7--5---------------------109--8--7--5-------------------------|--
-|--87--6--5--3----------------------87--6--5--3-------------------------|--
-|-------------------------------------------------------------------------|--

G1 Spin the black circle Spin the black circle


-|--8----------8-----------------------------------------------------------|--
-|-11b13------11b13--11-8----8---------------------------------------------|--
-|------------------------10----10b11-11-11-11-11-11-10b12r10p8----8h10p8--|--
-|--------------------------------------------------------------10---------|--
-|-------------------------------------------------------------------------|--
-|-------------------------------------------------------------------------|--
G2 hold bend---------|
-|-------------------------------------------------------------------------|--
-|-------------------------------------------------------------------------|--
-|-109--8--7--5--------------109--8--7--5------------109-8-7-5----------|--
-|-109--8--7--5--------------109--8--7--5------------109-8-7-5----------|--
-|--87--6--5--3---------------87--6--5--3-------------87-6-5-3----------|--
-|-------------------------------------------------------------------------|--

G1 Spin spin spin spin Spin spin Spin spin


-|--11----11-11-11-11-11-11-11-11-11-11-11-11-11-11-11-11-11-11-11-11-11---|--
-|--11b13-13-13-13-13-13-13-13-13-13-13-13-13-13-13-13-13-13-13-13-13-13---|--
-|-------------------------------------------------------------------------|--
-|-------------------------------------------------------------------------|--
-|-------------------------------------------------------------------------|--
-|-------------------------------------------------------------------------|--
G2 hold bend---------------------------------------------------------|
-|-------------------------------------------------------------------------|--
-|-------------------------------------------------------------------------|--
-|-------------------------------------------------------------------------|--
-|------5-----------------------------6------7------8-----9----10----------|--
-|------/-----------------------------/------/------/-----/-----/----------|--
-|------/-----------------------------/------/------/-----/-----/----------|--


-|-------------------------------------------------------------------------|--
-|-------------------------------------------------------------------------|--
-|-109--8--7--5-----------109--8--7--5--------109--8--7--5--------------|--
-|-109--8--7--5-----------109--8--7--5--------109--8--7--5--------------|--
-|--87--6--5--3------------87--6--5--3---------87--6--5--3--------------|--
-|-------------------------------------------------------------------------|--

G1 Spin spin Spin spin


-|-11-11-11-----------------------------8----------------------------------|--
-|-13-13-13r11--11b13-11b13vvvvvvvvvvvv---11-8---11p8----8-----------------|--
-|---------------------------------------------9------10--b12r10p8----8vvv|--
-|------------------------------------------------------------------10-----|--
-|-------------------------------------------------------------------------|--
-|-------------------------------------------------------------------------|--
G2 -------| wide vibrato pre-bend
-|------------------------15-16-15-14-15-14-13-14-13-12--------------------|--
-|-------------------------------------------------------------------------|--
-|-------------------------------------------------------------------------|--
-|-------------------------------------------------------------------------|--
-|-------------------------------------------------------------------------|--
-|-------------------------------------------------------------------------|--


-|---------------------||-----------------------------------------------------
-|---------------------||-----------------------------------------------------
-|-109--8--7----------||-----------------------------------------------------
-|-109--8--7----------||-----------------------------------------------------
-|--87--6--5----------||-----------------------------------------------------
-|-------------8b10r8-||-----------------------------------------------------


-|---------------------||-----------------------------------------------------
-|---------------------||-----------------------------------------------------
-|-8vv-8vv-8-----------||-----------------------------------------------------
-|---------------------||-----------------------------------------------------
-|---------------------||-----------------------------------------------------
-|---------------------||-----------------------------------------------------


-|-15-16---------------||-----------------------------------------------------
-|---------------------||-----------------------------------------------------
-|---------------------||-----------------------------------------------------
-|---------------------||-----------------------------------------------------
-|------------15-------||-----------------------------------------------------
-|------------15-------||-----------------------------------------------------


To play the most songs, including Spin the Black Circle by Pearl Jam by ukulele, the most crucial basic ukulele chords to learn are C chord, D chord, G chord, and Em chord.
These set you up to play a a lot of songs, and each of them is easy to master.

If you are looking for Soon Forget ukulele chords, you have come to the right place.
You can play versatile instrument Soon Forget using ukulele or guitar.
This song by Pearl Jam can also be played by that instruments.
=

Soon Forget chords has rhythm and included in Other Songs album.
You can also find another musical style, including jazz ukulele chords, country music ukulele chords, pop ukulele chords, world music ukulele chords, and rock ukulele chords here.

Soon Forget by Pearl Jam Ukulele Chords


This song is played with an okulele, so, if played in the guitar it won’t be the same.
way,good luck….

Capo: 4th fret

Sorry is the fool who trades his soul for a corvette
Thinks he’ll get the girl he’ll only get the mechanic
What’s missing? He’s living a day he’ll soon forget

That’s one more time around. The sun is going down
The moon is out but he’s drunk and shouting
Putting people down. He’s pissing. He’s living a day he’ll soon forget
( Tab from: http://www.guitartabs.cc/tabs/p/pearl_jam/soon_forget_crd_ver_2.html )
Counts his money every morning
The only thing that keeps him horny
Locked in a giant house that’s alarming
The townsfolk they all laugh

Sorry is the fool who trades his love for hi-rise rent
Seem the more you make equals the loneliness you get
And it’s fitting. He’s barely living a day he’ll soon forget

That’s one more time around and there is not a sound
He’s lying dead clutching Benjamins. Never put the money down
He’s stiffening. We’re all whistling. A man we’ll soon forget

To play the most songs, including Soon Forget by Pearl Jam by ukulele, the most important basic ukulele chords to learn are C chord, D chord, G chord, and Em chord.
These set you up to play a ton of songs, and each of them is easy to learn.

If you are looking for MFC ukulele chords, you’ve come to the right place.
You can play versatile instrument MFC using ukulele or guitar.
This song by Pearl Jam can also be played by that instruments.
=

MFC chords has rhythm and included in Yield (1998) album.
You can also get another musical style, including jazz ukulele chords, country music ukulele chords, pop ukulele chords, world music ukulele chords, and rock ukulele chords here.

MFC by Pearl Jam Ukulele Chords

Date: Fri, 06 Mar 1998 19:22:57 -0500
From: Randy Alexander
Subject: p/pearl_jam/mfc.crd

by Pearl Jam
submitted by Nick Sonderup (nicksond@yahoo.com)

Standard Tuning

Intro:


e---------------------------------------------------------------------
B----------3--3----3-3----3--1-0------3---3-3---3-3---3--1-0---
G---0-0-0-------0------0--------0---0---0------0-----0--------0---
D---------------------------------------------------------------------

etc…


A---------------------------------------------------------------------
E---------------------------------------------------------------------

F D F D

Verse:

F D

Chorus:

That is pretty much it, the solo is a mixolodan (spelling?) scale. You
can find most of the notes in a G major scale. Check bottem for the D
transcription

D


e-----x------
B----x-------
G----2------- play this a few times and then pull-off and it

sounds pretty good


D----0-------
A----x-------
E----x--------

Nick

To play the most songs, including MFC by Pearl Jam by ukulele, the most crucial basic ukulele chords to learn are C chord, D chord, G chord, and Em chord.
These set you up to play a many of songs, and each of them is easy to learn.

If you are searching for Jeremy ukulele chords, you already visit to the right site.
You can play versatile instrument Jeremy using ukulele or guitar.
This song by Pearl Jam can also be played by that instruments.
=

Jeremy chords has rhythm and included in album.
You can also get another musical genres, including jazz ukulele chords, country music ukulele chords, pop ukulele chords, world music ukulele chords, and rock ukulele chords here.

Jeremy by Pearl Jam Ukulele Chords

At home
 
Drawing pictures
Of mountain tops
With him on top
Lemon yellow sun
Arms raised in a V
And the dead lay in pools of maroon below
 
 
Daddy didn’t give attention
Oh, to the fact that mommy didn’t care
King Jeremy The Wicked
Ruled his world
 
 
Jeremy spoke in class today
Jeremy spoke in class today
 
 
Clearly I remember
Pickin’ on the boy
 
Seemed a harmless little fuck
But we unleashed a lion
Gnashed his teeth
 
And bit the recess lady’s breast
How could I forget
And he hit me with a surprise left
My jaw left hurting
Dropped wide open
Just like the day
Oh, like the day I heard
 
 
Daddy didn’t give affection, no!
And the boy was
something that mommy wouldn’t wear
King Jeremy The Wicked
Ruled his world
 
 
Jeremy spoke in class today
Jeremy spoke in class today
Jeremy spoke in class today
Jeremy spoke in class today
 
 
(x2)
 
Try to forget this
Try to forget this
Try to erase this from the
black board
 
(x4)
 
Jeremy spoke in class today
Jeremy spoke in class today
Jeremy spoke in class today
Jeremy spoke in class today
 
(x16)

To play the most songs, including Jeremy by Pearl Jam by ukulele, the most important basic ukulele chords to learn are C chord, D chord, G chord, and Em chord.
These set you up to play a ton of songs, and each of them is easy to learn.

If you are searching for Around the Bend ukulele chords, you’ve come to the best place.
You can play versatile instrument Around the Bend using ukulele or guitar.
This song by Pearl Jam can also be played by that instruments.
=

Around the Bend chords has rhythm and included in No Code (1996) album.
You can also find other musical genres, including jazz ukulele chords, country music ukulele chords, pop ukulele chords, world music ukulele chords, and rock ukulele chords here.

Around the Bend by Pearl Jam Ukulele Chords



E --------------------2--------------
B -7------7--5--2--5--3--------------
G -6------6--6--2--6--2--------------
D -7------7--5--2--5-----------------
A -----------------------------------
E -----------------------------------

Chorus:

>From harley@voyageronline.net


----------------------------------------------0---2---
-7---5--7---7------5------2------5------3-------------
----------------------------------------------2-------
-7------------7------5------2------5------------------
------------------------------------------------------
------------------------------------------------------

AROUND THE BEND

Pearl Jam – No Code
Track 13

This represents our interpretation of the original artist’s work, to be used for personal or educational use only.

Transcibed by Bryce Christensen and Matt Forth.
If you add to this or fix any mistakes, please send us a copy.
matt@gil.com.au
(Please email if you are a drummer / bass guitarist near Brisbane interested in jammin’!!!!)

VERSE


E ---------------- ----------------
B 7-------7---7--- 5---2---5---3---
G 6-------6---6--- 4---1---4---2---
D ---------------- ----------------
A ---------------- ----------------
E ---------------- ----------------

“CHORUS”


E ---------------- ----------------
B 3-----3-5---5-3- --3-------------
G 2-----2-4---4-2- --2-------------
D ---------------- ----------------
A ---------------- ----------------
E ---------------- ----------------

VERSE 1:

I am wishing you a well
Wind at peace within your cell
covers up I cast you off
I’ll be watching as you breathe
I sit still you move I send

(chrous) You off around the bend

VERSE 2:

I hold your head deep in my arms
My fingertips they cover your eyes
Off you dream my little child
There’s a sun around around

(chorus) There’s a sun around the bend

VERSE 3:

All the evenings close like this
All these moments that I’ve missed
Please forgive me wont you dear
Please forgive and let me share

(chorus) With you around the bend

VERSE 4:

You’re an angel when you sleep
How I want your soul to keep

(chorus) On and on around the bend

To play the this songs, including Around the Bend by Pearl Jam by ukulele, the most important basic ukulele chords to learn are C chord, D chord, G chord, and Em chord.
These set you up to play a a lot of songs, and each of them is easy to learn.

If you are looking for Hail, Hail ukulele chords, you’ve come to the best site.
You can play versatile instrument Hail, Hail using ukulele or guitar.
This song by Pearl Jam can also be played by that instruments.
=

Hail, Hail chords has rhythm and included in No Code (1996) album.
You can also find another musical genres, including jazz ukulele chords, country music ukulele chords, pop ukulele chords, world music ukulele chords, and rock ukulele chords here.

Hail, Hail by Pearl Jam Ukulele Chords


Date: Thu, 10 Oct 1996 04:03:12 -0500
From: Beavis
Pearl Jam
Hail Hail
From the Album No Code
Chords:
D: F: 1st Fret c#: 4th fret D: 5th fret
2nd fret

G: 3rd fret A: 5th fret B#: 8th fret A#: 6th Fret
(bar chord) (bar)

Intro is like this:
D F C# D G A B# A# (two times)
Then:

Is there room for both of us?

Both of us apart?
Are we bound out of obiligation?
Is that all we’ve got?

I get the words And then I get to Thinking
I don’t Want to think I wanna Feel
How Do I feel?
How Do I?
You’re you’re the only one will I ever be enough said (what the hell is he saying?)
Hail Hail The lucky ones, I refer to those in love

Swore I’d Love you till the day I die
and beyond Are We going to the same place?
If So can I come?
It’s egg rollin thick and heavy the past we carry I could be new
You underestimate me
You’re you’re the only one will I ever be enough said (what the hell is he saying?)
Hail Hail The lucky ones, I refer to those in love
(little solo goin on here)
I sometimes realize I could only be as good as you let me
Are you Woman enough to be my man?
Bandaged hand in hand
Somthin somthin run in a race that can’t be won (what the hell is he saying?)
All Hail The lucky ones, I refer to those in love
And your my only one so good you, only one I want to be your one
Your one… your one… your one
outro
This is an outline of the song! I am by no means an expert if its wrong sorry,
fix it and post it.
Scott Wojan
P.S. Eddie What ARE YOU DOING GET SAMMY BACK!!!!
From o2d48@coba2.ttu.edu Wed Oct 16 07:50:22 1996
Date: Mon, 14 Oct 1996 03:15:24 -0500
From: Beavis
To: guitar@nevada.edu
Subject: (no subject)
Pearl Jam
Hail Hail
From the Album No Code
Chords:
D: F: 1st Fret c#: 4th fret D: 5th fret
2nd fret

G: 3rd fret A: 5th fret B#: 8th fret A#: 6th Fret
(bar chord) (bar)

Intro is like this:
D F C# D G A B# A# (two times)
Then:

Is there room for both of us?

Both of us apart?
Are we bound out of obiligation?
Is that all we’ve got?

I get the words And then I get to Thinking
I don’t Want to think I wanna Feel
How Do I feel?
How Do I?
You’re you’re the only one will I ever be enough said (what the hell is he saying?)
Hail Hail The lucky ones, I refer to those in love

Swore I’d Love you till the day I die
and beyond Are We going to the same place?
If So can I come?
It’s egg rollin thick and heavy the past we carry I could be new
You underestimate me
You’re you’re the only one will I ever be enough said (what the hell is he saying?)
Hail Hail The lucky ones, I refer to those in love
(little solo goin on here)
I sometimes realize I could only be as good as you let me
Are you Woman enough to be my man?
Bandaged hand in hand
Somthin somthin run in a race that can’t be won (what the hell is he saying?)
All Hail The lucky ones, I refer to those in love
And your my only one so good you, only one I want to be your one
Your one… your one… your one
outro
This is an outline of the song! I am by no means an expert if its wrong sorry,
fix it and post it.
Scott Wojan
P.S. Eddie What ARE YOU DOING GET SAMMY BACK!!!!

To play the this songs, including Hail, Hail by Pearl Jam by ukulele, the most crucial basic ukulele chords to learn are C chord, D chord, G chord, and Em chord.
These set you up to play a a lot of songs, and each of them is easy to master.

If you are searching for Satan’s Bed ukulele chords, you already come to the right site.
You can play versatile instrument Satan’s Bed using ukulele or guitar.
This song by Pearl Jam can also be played by that instruments.
=

Satan’s Bed chords has rhythm and included in Vitalogy (1994) album.
You can also get other musical genres, including jazz ukulele chords, country music ukulele chords, pop ukulele chords, world music ukulele chords, and rock ukulele chords here.

Satan’s Bed by Pearl Jam Ukulele Chords

RSatanUs BedS by: Pearl Jam
transcribed by: Joe Lupo

IUm not sure if this is exactly correct, but IUve played it against a bootleg
recording of it and it sounds good to me.

Verse
~~~~~~

E- ——————————-
B- ——————————-
G- ——————————-
D- ——————————-
A- ——4—–4—–4————
E- -/5-5—5-5—5-5—5-4-3——

Chorus

E- ———————————-
B- ———————————-
G- —5——-7———————-
D- —5—5—7—7——————
A- —3—5—5—7——————
E- ——-3——-5——————

(I got the lyrics from the songbook by Joe Danziger)

(play the verse part)

It’s not all been said…been said and done…
I’ve never slept in Satan’s bed
Although I must admit…still visits my place
Uninvited, as you know, he don’t wait
Funny how he always seems to fit in
Funny how I always want to give in
Sundays, Fridays, Tuesdays, Thursday, the same
Sometimes the special guest, he don’t like to leave

(play the chorus part)

Already…in love… (3x)
Already…

(verse)

Who made, who made up, made up the myth
That we were born to be covered in bliss?
Who set the standard, born to be rich?
Such fine examples, skinny little bitch
Model, role model, roll some models in blood
Get some flesh to stick, so they look like us
I shit and I stink, I’m real, join the club
I’d stop and talk, but I’m already in love

(chorus)

Already…in love… (3x)
Already…

(verse)

Never shook Satan’s hand, look see for yourself
You’d know it if I had, that shit don’t come off
I’ll rise and fall, let me take credit for both
Jump off a cliff, don’t need your help so back off
I’ll never suck Satan’s dick
Again, you’d see it, you know, right round the lips
I’ll wait for an angel, but I won’t hold my breath
‘Magine they’re busy, think I’m doing okay…

(chorus)

Already…in love… (6x)
Already…

I donUt know if the recording on Vitology is any different from the time they
played it at the Atlanta show, but this is how I got it.
Send any corrections to jlupo@eden.rutgers.edu

(for some reason, there arsome letters thrown in there, don’t know why)

From: Silverdrip@aol.com
Date: Sat, 16 Dec 1995 17:24:38 -0500
Subject: TAB: Satan’s Bed–pearl jam

Satan’s bed

pearl jam

tabbed: jeremy kerans (Silverdrip@aol.com)

intro:

E—-12/–

main riff:

A——-0-0-4-0-0-4-0-0-4-0——
E—0-0———————4-3–

the chorus was posted by joe lupo (thanks), but i added the two rakes after
the chords

right before the chorus is:

E—0-0——-

Chorus

E- ————————————-
B- ————————————-
G- —5——-7——-x–x————–
D- —5—5—7—7—x–x————–
A- —3—5—5—7—x–x————–
E- ——-3——-5—x–x————–

any questions, comments, corrections:

silverdrip@aol.com or
purepig@aol.com

Date: Thu, 28 Mar 1996 19:14:48 -0800
From: David Eichenstein

Satan’s Bed by Pearl Jam
tabbed out by dave eichenstein
(punksk8r@earthlink.net)

intro; repeat until chorus

——————————-4–3– ——————————————
-0–0–4–0–0–4–0–0–4–0——– ——————————————
-2–2—–2–2—–2–2————– ——————————————
-2–2—–2–2—–2–2————– ——————————————
-2–2—–2–2—–2–2————– ——————————————
————————————- ——————————————

chorus; play as many times as they do

—-3—–5—–3—–5———————————————————
-3–5–5–7–3–5–5–7———————————————————
-5–5–7–7–5–5–7–7———————————————————
-5–4–7–8–5–4–7–8———————————————————
-5–5–7–5–5–5–7–5———————————————————
-5–5–7–5–5–5–7–5———————————————————

To play the this songs, including Satan’s Bed by Pearl Jam by ukulele, the most crucial basic ukulele chords to learn are C chord, D chord, G chord, and Em chord.
These set you up to play a a lot of songs, and each of them is easy to master.

  • 1
  • 2