If you are looking for The Feel Is Gone ukulele chords, you already come to the right site.
You can play versatile instrument The Feel Is Gone using ukulele or guitar.
This song by Recover can also be played by that instruments.
=

The Feel Is Gone chords has rhythm and included in album.
You can also find another musical genres, including jazz ukulele chords, country music ukulele chords, pop ukulele chords, world music ukulele chords, and rock ukulele chords here.

The Feel Is Gone by Recover Ukulele Chords

Band – Recover
song ‘ The Feel is gone

Drop D

~-Ring

x-Mute

/-Slide

p-slight pause

Listen to song for timing

Intro

D-2-p-2-2-0
A-2-p-2-2-0
D-2-p-2-2-0


D------------
A--9---------- 4x
D------------

D-2-p-2-2-0
A-2-p-2-2-0
D-2-p-2-2-0


D------------
A--9---------- 4x
D------------

D-2-p-2-2-0
A-2-p-2-2-0
D-2-p-2-2-0


D------------
A--9---------- 4x
D------------

D-2-p-2-2-0
A-2-p-2-2-0
D-2-p-2-2-0

Chorus


G-7~-7~-7~----------------
D-7~-7~-7~----------------
A-5~-4~-5~-5-7-5-4-0------
D-------------------------

[G-777777777777777777777—]
[D-777777777777777777777—]
[A-555555444445555544444—]


D-------------------------
D------------
A--9---------- 4x
D------------

D-2-p-2-2-0
A-2-p-2-2-0
D-2-p-2-2-0


D------------
A--9---------- 4x
D------------

D-2-p-2-2-0
A-2-p-2-2-0
D-2-p-2-2-0

Chorus


G-7~-7~-7~----------------
D-7~-7~-7~----------------
A-5~-4~-5~-5-7-5-4-0------
D-------------------------
G-777777777777777777777-----------
D-777777777777777777777-----------
A-555555444445555544444-5-7-5-4-0-
D---------------------------------

Bridge

[D-4444555544442222]
[A-4444555544442222]
[D-4444555544442222]
D-4444xx4444xx4
A-4444xx4444xx4
D-4444xx4444xx4

To play the this songs, including The Feel Is Gone by Recover by ukulele, the most important basic ukulele chords to learn are C chord, D chord, G chord, and Em chord.
These set you up to play a ton of songs, and each of them is easy to learn.

If you are looking for The Feel Is Gone ukulele chords, you’ve come to the right place.
You can play versatile instrument The Feel Is Gone using ukulele or guitar.
This song by Recover can also be played by that instruments.
=

The Feel Is Gone chords has rhythm and included in album.
You can also get other musical style, including jazz ukulele chords, country music ukulele chords, pop ukulele chords, world music ukulele chords, and rock ukulele chords here.

The Feel Is Gone by Recover Ukulele Chords


Band – Recover
song ‘ The Feel is gone

Drop D

~-Ring

x-Mute

/-Slide

p-slight pause

Listen to song for timing

Intro

D-2-p-2-2-0
A-2-p-2-2-0
D-2-p-2-2-0


D------------
A--9---------- 4x
D------------

D-2-p-2-2-0
A-2-p-2-2-0
D-2-p-2-2-0


D------------
A--9---------- 4x
D------------

D-2-p-2-2-0
A-2-p-2-2-0
D-2-p-2-2-0


D------------
A--9---------- 4x
D------------

D-2-p-2-2-0
A-2-p-2-2-0
D-2-p-2-2-0

Chorus


G-7~-7~-7~----------------
D-7~-7~-7~----------------
A-5~-4~-5~-5-7-5-4-0------
D-------------------------

[G-777777777777777777777—]
[D-777777777777777777777—]
[A-555555444445555544444—]


D-------------------------
D------------
A--9---------- 4x
D------------

D-2-p-2-2-0
A-2-p-2-2-0
D-2-p-2-2-0


D------------
A--9---------- 4x
D------------

D-2-p-2-2-0
A-2-p-2-2-0
D-2-p-2-2-0

Chorus


G-7~-7~-7~----------------
D-7~-7~-7~----------------
A-5~-4~-5~-5-7-5-4-0------
D-------------------------
G-777777777777777777777-----------
D-777777777777777777777-----------
A-555555444445555544444-5-7-5-4-0-
D---------------------------------

Bridge

[D-4444555544442222]
[A-4444555544442222]
[D-4444555544442222]
D-4444xx4444xx4
A-4444xx4444xx4
D-4444xx4444xx4

To play the this songs, including The Feel Is Gone by Recover by ukulele, the most important basic ukulele chords to learn are C chord, D chord, G chord, and Em chord.
These set you up to play a a lot of songs, and each of them is easy to learn.