If you are searching for By the Way ukulele chords, you already come to the best site.
You can play versatile instrument By the Way using ukulele or guitar.
This song by Red Hot Chili Peppers can also be played by that instruments.
=

By the Way chords has rhythm and included in Other Songs album.
You can also find another musical genres, including jazz ukulele chords, country music ukulele chords, pop ukulele chords, world music ukulele chords, and rock ukulele chords here.

By the Way by Red Hot Chili Peppers Ukulele Chords


Song: By The Way
Artist: Red Hot Chili Peppers
Album: By The Way (2002)

Words and Music by Red Hot Chili Peppers
Transcribed by Aidan Hampson
Tuning: Standard (EADGBE)

Intro
Moderate Rock Q120
[C/E]
[4/4] Gtr I

|————————-|————————-|
|————————-|————————-|
|————————-|————————-|
|-10-10-10-10-10-10-10-10-|-10-10-10-10-10-10-10-10-|
|–8–8–8–8–8–8–8–8-|–7–7–7–7–7–7–7–7-|
|————————-|————————-|

|—————–|—————–||
|—————–|—————–||
|—————–|—————–||
|—————–|—————–||
|-7-7-7-7-7-7-7-7-|-7-7-7-7-7-7-7-7-||
|-5-5-5-5-5-5-5-5-|-5-5-5-5-5-5-5-5-||

Verse
[C/E]

|————————-|————————-|
|————————-|————————-|
|-10-10-10-10-10-10-10-10-|–9–9–9–9–9–9–9–9-|
|-10-10-10-10-10-10-10-10-|-10-10-10-10-10-10-10-10-|
|–8–8–8–8–8–8–8–8-|–7–7–7–7–7–7–7–7-|
|————————-|————————-|

[A5/E] [A5/EAsus4/E]

|—————–|—————–|
|—————–|—————–|
|—————–|———9-9-7-7-|
|-7-7-7-7-7-7-7-7-|-7-7-7-7-7-7-7-7-|
|-7-7-7-7-7-7-7-7-|-7-7-7-7-7-7-7-7-|
|—————–|—————–|

[C/E]

|————————-|————————-|
|————————-|————————-|
|————————-|————————-|
|-10-10-10-10-10-10-10-10-|-10-10-10-10-10-10-10-10-|
|–8–8–8–8–8–8–8–8-|–7–7–7–7–7–7–7–7-|
|————————-|————————-|

|—————–|—————–|
|—————–|—————–|
|—————–|—————–|
|—————–|—————–|
|-7-7-7-7-7-7-7-7-|-7-7-7-7-7-7-7-7-|
|-5-5-5-5-5-5-5-5-|-5-5-5-5-5-5-5-5-|

[C/E]

|————————-|————————-|
|————————-|————————-|
|-10-10-10-10-10-10-10-10-|–9–9–9–9–9–9–9–9-|
|-10-10-10-10-10-10-10-10-|-10-10-10-10-10-10-10-10-|
|–8–8–8–8–8–8–8–8-|–7–7–7–7–7–7–7–7-|
|————————-|————————-|

[A5/E] [A5/E]

|—————–|———————-||
|—————–|——-10-10-10-10-10-||
|—————9-|-9-9-9–9–9–9–9–9-||
|-7-7-7-7-7-7-7-7-|-7-7-7–7–7–7–7–7-||
|-7-7-7-7-7-7-7-7-|-7-7-7–0–0–0–0–0-||
|—————–|———————-||

Bridge
N.C.
Gtr II

|-x-x-x-x-x-x-x-x-x-x-x-x-x-x-x-x-|-x-x-x-x-x-x-x-x-x-x-x-x-x-x-x-x-|
|-x-x-x-x-x-x-x-x-x-x-x-x-x-x-x-x-|-x-x-x-x-x-x-x-x-x-x-x-x-x-x-x-x-|
|-x-x-x-x-x-x-x-x-x-x-x-x-x-x-x-x-|-x-x-x-x-x-x-x-x-x-x-x-x-x-x-x-x-|
|-x-x-x-x-x-x-x-x-x-x-x-x-x-x-x-x-|-x-x-x-x-x-x-x-x-x-x-x-x-x-x-x-x-|
|-x-x-x-x-x-x-x-x-x-x-x-x-x-x-x-x-|-x-x-x-x-x-x-x-x-x-x-x-x-x-x-x-x-|
|-x-x-x-x-x-x-x-x-x-x-x-x-x-x-x-x-|-x-x-x-x-x-x-x-x-x-x-x-x-x-x-x-x-|
|-x-x-x-x-x-x-x-x-x-x-x-x-x-x-x-x-|-x-x-x-x-x-x-x-x-x-x-x-x-x-x-x-x—-|
|-x-x-x-x-x-x-x-x-x-x-x-x-x-x-x-x-|-x-x-x-x-x-x-x-x-x-x-x-x-x-x-x-x—-|
|-x-x-x-x-x-x-x-x-x-x-x-x-x-x-x-x-|-x-x-x-x-x-x-x-x-x-x-x-x-x-x-x-x—-|
|-x-x-x-x-x-x-x-x-x-x-x-x-x-x-x-x-|-x-x-x-x-x-x-x-x-x-x-x-x-x-x-x-x—-|
|-x-x-x-x-x-x-x-x-x-x-x-x-x-x-x-x-|-x-x-x-x-x-x-x-x-x-x-x-x-x-x-x-x—-|
|-x-x-x-x-x-x-x-x-x-x-x-x-x-x-x-x-|-x-x-x-x-x-x-x-x-x-x-x-x-x-x-x-x—-|

$

|-x-x-x-x-x-x-x-x-x-x-x-x-x-x-x-x-|-x-x-x-x-x-x-x-x-x-x-x-x-x-x-x-x-|
|-x-x-x-x-x-x-x-x-x-x-x-x-x-x-x-x-|-x-x-x-x-x-x-x-x-x-x-x-x-x-x-x-x-|
|-x-x-x-x-x-x-x-x-x-x-x-x-x-x-x-x-|-x-x-x-x-x-x-x-x-x-x-x-x-x-x-x-x-|
|-x-x-x-x-x-x-x-x-x-x-x-x-x-x-x-x-|-x-x-x-x-x-x-x-x-x-x-x-x-x-x-x-x-|
|-x-x-x-x-x-x-x-x-x-x-x-x-x-x-x-x-|-x-x-x-x-x-x-x-x-x-x-x-x-x-x-x-x-|
|-x-x-x-x-x-x-x-x-x-x-x-x-x-x-x-x-|-x-x-x-x-x-x-x-x-x-x-x-x-x-x-x-x-|
|-x-x-x-x-x-x-x-x-x-x-x-x-x-x-x-x-|-x-x-x-x-x-x-x-x-x———————-|
|-x-x-x-x-x-x-x-x-x-x-x-x-x-x-x-x-|-x-x-x-x-x-x-x-x-x-13-x-13-x-13-x-13—-|
|-x-x-x-x-x-x-x-x-x-x-x-x-x-x-x-x-|-x-x-x-x-x-x-x-x-x–x-x–x-x–x-x–x—-|
|-x-x-x-x-x-x-x-x-x-x-x-x-x-x-x-x-|-x-x-x-x-x-x-x-x-x-10-x-10-x-10-x-10—-|
|-x-x-x-x-x-x-x-x-x-x-x-x-x-x-x-x-|-x-x-x-x-x-x-x-x-x———————-|
|-x-x-x-x-x-x-x-x-x-x-x-x-x-x-x-x-|-x-x-x-x-x-x-x-x-x———————-|

|——-x-x-x-x-x-x-x-x-x-x-x-x-|——-x-x-x-x-x-x-x-x-x-x-x-x-|
|-10-10-x-x-x-x-x-x-x-x-x-x-x-x-|-10-10-x-x-x-x-x-x-x-x-x-x-x-x-|
|-10-10-x-x-x-x-x-x-x-x-x-x-x-x-|-10-10-x-x-x-x-x-x-x-x-x-x-x-x-|
|-12-12-x-x-x-x-x-x-x-x-x-x-x-x-|-12-12-x-x-x-x-x-x-x-x-x-x-x-x-|
|——-x-x-x-x-x-x-x-x-x-x-x-x-|——-x-x-x-x-x-x-x-x-x-x-x-x-|
|——-x-x-x-x-x-x-x-x-x-x-x-x-|——-x-x-x-x-x-x-x-x-x-x-x-x-|
|——-x-x-x-x-x-x-x-x-x-x-x-x-|——-x-x-x-x-x——————-|
|-10-10-x-x-x-x-x-x-x-x-x-x-x-x-|-10-10-x-x-x-x-x-13-x-13-x-13-x-13-|
|-10-10-x-x-x-x-x-x-x-x-x-x-x-x-|-10-10-x-x-x-x-x–x-x–x-x–x-x–x-|
|-12-12-x-x-x-x-x-x-x-x-x-x-x-x-|-12-12-x-x-x-x-x-10-x-10-x-10-x-10-|
|——-x-x-x-x-x-x-x-x-x-x-x-x-|——-x-x-x-x-x——————-|
|——-x-x-x-x-x-x-x-x-x-x-x-x-|——-x-x-x-x-x——————-|
|——-x-x-x-x-x-x-x-x-x-x-x-x-|——-x-x-x-x-x-x-x-x-x-x-x-x-|
|-10-10-x-x-x-x-x-x-x-x-x-x-x-x-|-10-10-x-x-x-x-x-x-x-x-x-x-x-x-|
|-10-10-x-x-x-x-x-x-x-x-x-x-x-x-|-10-10-x-x-x-x-x-x-x-x-x-x-x-x-|
|-12-12-x-x-x-x-x-x-x-x-x-x-x-x-|-12-12-x-x-x-x-x-x-x-x-x-x-x-x-|
|——-x-x-x-x-x-x-x-x-x-x-x-x-|——-x-x-x-x-x-x-x-x-x-x-x-x-|
|——-x-x-x-x-x-x-x-x-x-x-x-x-|——-x-x-x-x-x-x-x-x-x-x-x-x-|

To Coda

|——-x-x-x-x-x-x-x-x-x-x-x-x-|——-x-x-x-x————————-||
|-10-10-x-x-x-x-x-x-x-x-x-x-x-x-|-10-10-x-x-x-x-10-10-10-10-10-10-10-10-||
|-10-10-x-x-x-x-x-x-x-x-x-x-x-x-|-10-10-x-x-x-x-10-10-10-10-10-10-10-10-||
|-12-12-x-x-x-x-x-x-x-x-x-x-x-x-|-12-12-x-x-x-x-12-12-12-12-12-12-12-12-||
|——-x-x-x-x-x-x-x-x-x-x-x-x-|——-x-x-x-x————————-||
|——-x-x-x-x-x-x-x-x-x-x-x-x-|——-x-x-x-x————————-||

Chorus
Gtrs I, II

|-1-1-1-1-1-1-1-1-1-1-1-1-1-1-0-0-|-0-0-0-0-0-0-0-0-0-0-0-0-0-0-0-0-|
|-1-1-1-1-1-1-1-1-1-1-1-1-1-1-1-1-|-1-1-1-1-1-1-1-1-1-1-1-1-1-1-1-1-|
|-2-2-2-2-2-2-2-2-2-2-2-2-2-2-0-0-|-0-0-0-0-0-0-0-0-0-0-0-0-0-0-0-0-|
|-3-3-3-3-3-3-3-3-3-3-3-3-3-3-2-2-|-2-2-2-2-2-2-2-2-2-2-2-2-2-2-2-2-|
|-x-x-x-x-x-x-x-x-x-x-x-x-x-x-3-3-|-3-3-3-3-3-3-3-3-3-3-3-3-3-3-3-3-|
|-1-1-1-1-1-1-1-1-1-1-1-1-1-1—–|———————————|

|-1-1-1-1-1-1-1-1-1-1-1-1-1-1-1-1-|-1-1-1-1-1-1-1-1-1-1-1-1-1-1-1-1—-|
|-3-3-3-3-3-3-3-3-3-3-3-3-3-3-3-3-|-3-3-3-3-3-3-3-3-3-3-3-3-3-3-3-3—-|
|-2-2-2-2-2-2-2-2-2-2-2-2-2-2-2-2-|-2-2-2-2-2-2-2-2-2-2-2-2-2-2-2-2—-|
|-0-0-0-0-0-0-0-0-0-0-0-0-0-0-0-0-|-0-0-0-0-0-0-0-0-0-0-0-0-0-0-0-0—-|
|———————————|————————————|
|———————————|————————————|

|-1-1-1-1-1-1-1-1-1-1-1-1-1-1-0-0-|-0-0-0-0-0-0-0-0-0-0-0-0-0-0-0-0-|
|-1-1-1-1-1-1-1-1-1-1-1-1-1-1-1-1-|-1-1-1-1-1-1-1-1-1-1-1-1-1-1-1-1-|
|-2-2-2-2-2-2-2-2-2-2-2-2-2-2-0-0-|-0-0-0-0-0-0-0-0-0-0-0-0-0-0-0-0-|
|-3-3-3-3-3-3-3-3-3-3-3-3-3-3-2-2-|-2-2-2-2-2-2-2-2-2-2-2-2-2-2-2-2-|
|-x-x-x-x-x-x-x-x-x-x-x-x-x-x-3-3-|-3-3-3-3-3-3-3-3-3-3-3-3-3-3-3-3-|
|-1-1-1-1-1-1-1-1-1-1-1-1-1-1—–|———————————|

|-0-0-0-0-0-0-0-0-0-0-0-0-0-0-0-0-|-0-0-1-1-1-1-1-1-1—-||
|-1-1-1-1-1-1-1-1-1-1-1-1-1-1-1-1-|-1-1-3-3-3-3-3-3-3—-||
|-2-2-2-2-2-2-2-2-2-2-2-2-2-2-2-2-|-2-2-3-3-3-3-3-3-3—-||
|-2-2-2-2-2-2-2-2-2-2-2-2-2-2-2-2-|-2-2-3-3-3-3-3-3-3—-||
|-0-0-0-0-0-0-0-0-0-0-0-0-0-0-0-0-|-0-0-1-1-1-1-1-1-1—-||
|———————————|———————-||

( Tab from: http://www.guitartabs.cc/tabs/r/red_hot_chili_peppers/by_the_way_tab_ver_7.html )
Interlude
Gtr II
.5/ .5/ .5/ .5/ .5/ .5/ .5/

|——————————–|————————————-|
|——————————–|————————————-|
|——————————–|————————————-|
|-12–(12)—–(12)—–(12)—–|-(12)—–(12)—–(12)—–(12)—–|
|——————————–|————————————-|
|——————————–|————————————-|

D.S. al Coda
.5/ .5/ .5/ .5/ .5/ .5/ .5/ .5/

|————————————-|————————————-||
|————————————-|————————————-||
|————————————-|————————————-||
|-(12)—–(12)—–(12)—–(12)—–|-(12)—–(12)—–(12)—–(12)—–||
|————————————-|————————————-||
|————————————-|————————————-||

Verse
&
Gtr I[C/E]

|————————-|————————-|
|————————-|————————-|
|————————-|————————-|
|-10-10-10-10-10-10-10-10-|-10-10-10-10-10-10-10-10-|
|–8–8–8–8–8–8–8–8-|–7–7–7–7–7–7–7–7-|
|————————-|————————-|

|—————–|—————–|
|—————–|—————–|
|—————–|—————–|
|—————–|—————–|
|-7-7-7-7-7-7-7-7-|-7-7-7-7-7-7-7-7-|
|-5-5-5-5-5-5-5-5-|-5-5-5-5-5-5-5-5-|

[C/E]

|————————-|————————-|
|————————-|————————-|
|-10-10-10-10-10-10-10-10-|–9–9–9–9–9–9–9–9-|
|-10-10-10-10-10-10-10-10-|-10-10-10-10-10-10-10-10-|
|–8–8–8–8–8–8–8–8-|–7–7–7–7–7–7–7–7-|
|————————-|————————-|

[A5/E] [A5/EAsus4/E]

|—————–|—————–|
|—————–|—————–|
|—————–|———9-9-7-7-|
|-7-7-7-7-7-7-7-7-|-7-7-7-7-7-7-7-7-|
|-7-7-7-7-7-7-7-7-|-7-7-7-7-7-7-7-7-|
|—————–|—————–|

[C/E]

|————————-|————————-|
|————————-|————————-|
|————————-|————————-|
|-10-10-10-10-10-10-10-10-|-10-10-10-10-10-10-10-10-|
|–8–8–8–8–8–8–8–8-|–7–7–7–7–7–7–7–7-|
|————————-|————————-|

|—————–|—————–|
|—————–|—————–|
|—————–|—————–|
|—————–|—————–|
|-7-7-7-7-7-7-7-7-|-7-7-7-7-7-7-5-5-|
|-5-5-5-5-5-5-5-5-|-5-5-5-5-5-5-5-5-|

[C/E]

|————————-|————————-|
|————————-|————————-|
|-10-10-10-10-10-10-10-10-|–9–9–9–9–9–9–9–9-|
|-10-10-10-10-10-10-10-10-|-10-10-10-10-10-10-10-10-|
|–8–8–8–8–8–8–8–8-|–7–7–7–7–7–7–7–7-|
|————————-|————————-|

[A5/E]

|——————|————————-||
|—————10-|-10-10-10-10-10-10-10-10-||
|—————-9-|–9–9–9–9–9–9–9–9-||
|-7-7-7-7-7-7-7–7-|–7–7–7–7–7–7–7–7-||
|-7-7-7-7-7-7-7–0-|–0–0–0–0–0–0–0–0-||
|——————|————————-||

Interlude
Gtr II

|————-|————-|————-|—————————–|
|-10-10——-|-10-10——-|-10-10——-|-10-10—x-13-x-13-x-13-x-13-|
|-10-10——-|-10-10——-|-10-10——-|-10-10—x–x-x–x-x–x-x–x-|
|-12-12——-|-12-12——-|-12-12——-|-12-12—x-10-x-10-x-10-x-10-|
|————-|————-|————-|—————————–|
|————-|————-|————-|—————————–|
|——-x-x-x-x-x-x-x-x-x-x-x-x-|——-x-x-x-x-x-x-x-x-x-x-x-x-|
|-10-10-x-x-x-x-x-x-x-x-x-x-x-x-|-10-10-x-x-x-x-x-x-x-x-x-x-x-x-|
|-10-10-x-x-x-x-x-x-x-x-x-x-x-x-|-10-10-x-x-x-x-x-x-x-x-x-x-x-x-|
|-12-12-x-x-x-x-x-x-x-x-x-x-x-x-|-12-12-x-x-x-x-x-x-x-x-x-x-x-x-|
|——-x-x-x-x-x-x-x-x-x-x-x-x-|——-x-x-x-x-x-x-x-x-x-x-x-x-|
|——-x-x-x-x-x-x-x-x-x-x-x-x-|——-x-x-x-x-x-x-x-x-x-x-x-x-|
|——-x-x-x-x-x-x-x-x-x-x-x-x-|——-x-x-x-x-x——————-|
|-10-10-x-x-x-x-x-x-x-x-x-x-x-x-|-10-10-x-x-x-x-x-13-x-13-x-13-x-13-|
|-10-10-x-x-x-x-x-x-x-x-x-x-x-x-|-10-10-x-x-x-x-x–x-x–x-x–x-x–x-|
|-12-12-x-x-x-x-x-x-x-x-x-x-x-x-|-12-12-x-x-x-x-x-10-x-10-x-10-x-10-|
|——-x-x-x-x-x-x-x-x-x-x-x-x-|——-x-x-x-x-x——————-|
|——-x-x-x-x-x-x-x-x-x-x-x-x-|——-x-x-x-x-x——————-|
|——-x-x-x-x-x-x-x-x-x-x-x-x-|——-x-x-x-x-x-x-x-x-x-x-x-x-|
|-10-10-x-x-x-x-x-x-x-x-x-x-x-x-|-10-10-x-x-x-x-x-x-x-x-x-x-x-x-|
|-10-10-x-x-x-x-x-x-x-x-x-x-x-x-|-10-10-x-x-x-x-x-x-x-x-x-x-x-x-|
|-12-12-x-x-x-x-x-x-x-x-x-x-x-x-|-12-12-x-x-x-x-x-x-x-x-x-x-x-x-|
|——-x-x-x-x-x-x-x-x-x-x-x-x-|——-x-x-x-x-x-x-x-x-x-x-x-x-|
|——-x-x-x-x-x-x-x-x-x-x-x-x-|——-x-x-x-x-x-x-x-x-x-x-x-x-|
|——-x-x-x-x-x-x-x-x-x-x-x—-|—————————————————-||
|-10-10-x-x-x-x-x-x-x-x-x-x-x-10-|-10-10-10-10-10-10-10-10-10-10-10-10-10-10-10-10—-||
|-10-10-x-x-x-x-x-x-x-x-x-x-x-10-|-10-10-10-10-10-10-10-10-10-10-10-10-10-10-10-10—-||
|-12-12-x-x-x-x-x-x-x-x-x-x-x-12-|-12-12-12-12-12-12-12-12-12-12-12-12-12-12-12-12—-||
|——-x-x-x-x-x-x-x-x-x-x-x—-|—————————————————-||
|——-x-x-x-x-x-x-x-x-x-x-x—-|—————————————————-||

Chorus
Gtrs I, II

||–1-1-1-1-1-1-1-1-1-1-1-1-1-1-0-0-|-0-0-0-0-0-0-0-0-0-0-0-0-0-0-0-0-|
||o-1-1-1-1-1-1-1-1-1-1-1-1-1-1-1-1-|-1-1-1-1-1-1-1-1-1-1-1-1-1-1-1-1-|
||–2-2-2-2-2-2-2-2-2-2-2-2-2-2-0-0-|-0-0-0-0-0-0-0-0-0-0-0-0-0-0-0-0-|
||–3-3-3-3-3-3-3-3-3-3-3-3-3-3-2-2-|-2-2-2-2-2-2-2-2-2-2-2-2-2-2-2-2-|
||o-x-x-x-x-x-x-x-x-x-x-x-x-x-x-3-3-|-3-3-3-3-3-3-3-3-3-3-3-3-3-3-3-3-|
||–1-1-1-1-1-1-1-1-1-1-1-1-1-1—–|———————————|

|-1-1-1-1-1-1-1-1-1-1-1-1-1-1-1-1-|-1-1-1-1-1-1-1-1-1-1-1-1-1-1-1-1—-|
|-3-3-3-3-3-3-3-3-3-3-3-3-3-3-3-3-|-3-3-3-3-3-3-3-3-3-3-3-3-3-3-3-3—-|
|-2-2-2-2-2-2-2-2-2-2-2-2-2-2-2-2-|-2-2-2-2-2-2-2-2-2-2-2-2-2-2-2-2—-|
|-0-0-0-0-0-0-0-0-0-0-0-0-0-0-0-0-|-0-0-0-0-0-0-0-0-0-0-0-0-0-0-0-0—-|
|———————————|————————————|
|———————————|————————————|

|-1-1-1-1-1-1-1-1-1-1-1-1-1-1-0-0-|-0-0-0-0-0-0-0-0-0-0-0-0-0-0-0-0-|
|-1-1-1-1-1-1-1-1-1-1-1-1-1-1-1-1-|-1-1-1-1-1-1-1-1-1-1-1-1-1-1-1-1-|
|-2-2-2-2-2-2-2-2-2-2-2-2-2-2-0-0-|-0-0-0-0-0-0-0-0-0-0-0-0-0-0-0-0-|
|-3-3-3-3-3-3-3-3-3-3-3-3-3-3-2-2-|-2-2-2-2-2-2-2-2-2-2-2-2-2-2-2-2-|
|-x-x-x-x-x-x-x-x-x-x-x-x-x-x-3-3-|-3-3-3-3-3-3-3-3-3-3-3-3-3-3-3-3-|
|-1-1-1-1-1-1-1-1-1-1-1-1-1-1—–|———————————|

|-0-0-0-0-0-0-0-0-0-0-0-0-0-0-0-0-|-0-0-1-1-1-1-1-1-1—–||
|-1-1-1-1-1-1-1-1-1-1-1-1-1-1-1-1-|-1-1-3-3-3-3-3-3-3—-o||
|-2-2-2-2-2-2-2-2-2-2-2-2-2-2-2-2-|-2-2-3-3-3-3-3-3-3—–||
|-2-2-2-2-2-2-2-2-2-2-2-2-2-2-2-2-|-2-2-3-3-3-3-3-3-3—–||
|-0-0-0-0-0-0-0-0-0-0-0-0-0-0-0-0-|-0-0-1-1-1-1-1-1-1—-o||
|———————————|———————–||

Outro
Gtr II

|-1–1-1-1-1-1-1-0-|-(0)-0-0-0-0-0-0-0-|
|-1–1-1-1-1-1-1-1-|-(1)-1-1-1-1-1-1-1-|
|-2–2-2-2-2-2-2-0-|-(0)-0-0-0-0-0-0-0-|
|-3–3-3-3-3-3-3-2-|-(2)-2-2-2-2-2-2-2-|
|-x–x-x-x-x-x-x-3-|-(3)-3-3-3-3-3-3-3-|
|-1–1-1-1-1-1-1—|——————-|

|-1–1-1-1-1-1-1-1-|-(1)-1-1-1-1-1-1-1—|
|-3–3-3-3-3-3-3-3-|-(3)-3-3-3-3-3-3-3—|
|-2–2-2-2-2-2-2-2-|-(2)-2-2-2-2-2-2-2—|
|-0–0-0-0-0-0-0-0-|-(0)-0-0-0-0-0-0-0—|
|——————|———————|
|——————|———————|

|-1–1-1-1-1-1-1-0-|-(0)-0-0-0-0-0-0-0-|
|-1–1-1-1-1-1-1-1-|-(1)-1-1-1-1-1-1-1-|
|-2–2-2-2-2-2-2-0-|-(0)-0-0-0-0-0-0-0-|
|-3–3-3-3-3-3-3-2-|-(2)-2-2-2-2-2-2-2-|
|-x–x-x-x-x-x-x-3-|-(3)-3-3-3-3-3-3-3-|
|-1–1-1-1-1-1-1—|——————-|

H.H

|-0–0-0-0-0-0-0-0-|-(0)-1-1-1-1-1-1-1—|
|-1–1-1-1-1-1-1-1-|-(1)-3-3-3-3-3-3-3—|
|-2–2-2-2-2-2-2-2-|-(2)-3-3-3-3-3-3-3—|
|-2–2-2-2-2-2-2-2-|-(2)-3-3-3-3-3-3-3—|
|-0–0-0-0-0-0-0-0-|-(0)-1-1-1-1-1-1-1—|
|——————|———————|

|-^5——–|-(5)—-|
|-^6——–|-(6)—-|
|-^7——–|-(7)—-|
|-^7——–|-(7)—-|
|-^5——–|-(5)—-|
|———–|——–|

To play the most songs, including By the Way by Red Hot Chili Peppers by ukulele, the most crucial basic ukulele chords to learn are C chord, D chord, G chord, and Em chord.
These set you up to play a many of songs, and each of them is easy to learn.

If you are searching for Under The Bridge ukulele chords, you already visit to the best site.
You can play versatile instrument Under The Bridge using ukulele or guitar.
This song by Red Hot Chili Peppers can also be played by that instruments.
=

Under The Bridge chords has rhythm and included in album.
You can also get another musical genres, including jazz ukulele chords, country music ukulele chords, pop ukulele chords, world music ukulele chords, and rock ukulele chords here.

Under The Bridge by Red Hot Chili Peppers Ukulele Chords


Verse 1
Sometimes I feel like
I don’t have a partner
Sometimes I feel like
My only friend
Is the city I live in
The city of angels?
Lonely as I am
Together we cry
 
Verse 2
I drive on her streets ’cause
She’s my companion
I walk through her hills ’cause
She knows who I am
She sees my good deeds and
She kisses me windy
I never worry,
Now that is a lie
 
Chorus
I don’t ever want to feel
Like I did that day
Take me to the place I love
Take me all the way
Chorus
I don’t ever want to feel
Like I did that day
Take me to the place I love
Take me all the way
 
Verse 3
It’s hard to believe that
There’s nobody out there
It’s hard to believe that
I’m all alone
At least I have her love
The city, she loves me
Lonely as I am
Together we cry
 
Chorus
I don’t ever want to feel
Like I did that day
Take me to the place I love
Take me all the way
 
Chorus
I don’t ever want to feel
Like I did that day
Take me to the place I love
Take me all the way
Oh no, no, no yeah, yeah
 
Coda
One time
Under the bridge downtown
Is where I drew some blood?

To play the this songs, including Under The Bridge by Red Hot Chili Peppers by ukulele, the most crucial basic ukulele chords to learn are C chord, D chord, G chord, and Em chord.
These set you up to play a many of songs, and each of them is easy to learn.

If you are searching for The Adventures Of Rain Dance Maggie ukulele chords, you have visit to the best place.
You can play versatile instrument The Adventures Of Rain Dance Maggie using ukulele or guitar.
This song by Red Hot Chili Peppers can also be played by that instruments.
=

The Adventures Of Rain Dance Maggie chords has rhythm and included in album.
You can also find other musical genres, including jazz ukulele chords, country music ukulele chords, pop ukulele chords, world music ukulele chords, and rock ukulele chords here.

The Adventures Of Rain Dance Maggie by Red Hot Chili Peppers Ukulele Chords




Lipstick junkie be funkyfunky all he want
shshe came back wearing a smilsmile
LoLook-alike someone drug me
they wawanted to unplug me
No one in here is on ttrial
Its just a turn-around
 
And we go
Oh
well and wwe go
Oh oh oh oh
 
Tic-toc, I want to rrock you like the 80s
CoCock-blocking isn’t allowallowed.
Tug boat sheila is iinto memorabilia
Who said three is a crowd?
We better get it on the go
 

Hey, nnow
We’ve gotta mmake it rain somesomehow
She told me too
And show me what to do
Oh MaMaggie makes it in her clcloud
I said , hey, nnow
We gotta make it rain somesomehow
She told me too
And show me what to do
She kknows how, to make it loud
 

Rain dance maggie advaadvances to the final
Who knew that she had thethe goods?
Little did I know
her body waswas one delicious vinyl
To your neck of thethe woods
I want to lick a little bit
 

Hey, nnow
We’ve gotta make it rain somesomehow
She told me too
And shoshow me what to do
Oh Maggie makes it in her clcloud
 


You got the wwrong girgirl
But not for llong girgirl
Its in a sosong girgirl
Cos I’ll be ggone gigirl
 
Hey, nnow
We’ve gotta make it rain somesomehow
She told me too
And shshow me what to do
Oh Maggie makes it in her ccloud
 
I said
Hey nnow
I want to rorock this valley ccrowd
She told me to
And toltold me what to do
She knoknows how to make itit loud
 

ButBut nnot for longer
Its in a song girl
Cos I’ll be gone bye bye yeah
bye bye, girl
bye bye, girl

To play the most songs, including The Adventures Of Rain Dance Maggie by Red Hot Chili Peppers by ukulele, the most crucial basic ukulele chords to learn are C chord, D chord, G chord, and Em chord.
These set you up to play a many of songs, and each of them is easy to learn.

If you are searching for Walkin’ on Down the Road ukulele chords, you have come to the best place.
You can play versatile instrument Walkin’ on Down the Road using ukulele or guitar.
This song by Red Hot Chili Peppers can also be played by that instruments.
=

Walkin’ on Down the Road chords has rhythm and included in The Uplift Mofo Party Plan (1987) album.
You can also get another musical style, including jazz ukulele chords, country music ukulele chords, pop ukulele chords, world music ukulele chords, and rock ukulele chords here.

Walkin’ on Down the Road by Red Hot Chili Peppers Ukulele Chords

Author/Artist: Red Hot Chili Peppers
Title: Walkin_On Down The Road
Album. Uplift Mofo Party Plan
Transcribed by: Greenie 12

I think this song is played with a talk box.

Intro: All vibratos with bar


E-|--------------------------------|----------------------------------------|
B-|--17)~~~~~~~----Vibrato-with----|----)-17---)----------------------------|
G-|--16~~~~~~~~------bar-into------|--16-----16-----14^16--14~~~~~~~~~~-x--|
D-|------------------FeedBack------|------------------------------------x--|
A-|--------------------------------|----------------------------------------|
E-|--------------------------------|----------------------------------------|
E-|-----------------------------------|---------------------------------17-----------|
B-|----)-17----)-17-------------------|----)-17----)-17------------------------------|
G-|--16------16--------16-16--14~~~~--|--16------16------16-14--16-14--------14~~~~--|
D-|-----------------------------------|----------------------------------------------|
A-|-----------------------------------|----------------------------------------------|
E-|-----------------------------------|----------------------------------------------|
E-|--------17----17--17-17-----------|----------------------------------------------|
B-|----)-----------------------------|---------------------------------)--17~~~~~~--|
G-|--16----------------------14~~~~--|------------14^16^14-----14----16-------------|
D-|----------------------------------|--14^16--16-----------16----------------------|
A-|----------------------------------|----------------------------------------------|
E-|----------------------------------|----------------------------------------------|

Chorus:

Guitar 1: In bar 1 you play the A5 chord on beat 1 and 3, while
guitar 2 plays the two note chord on beat 2 and 4


|1.--------------------|2.---------|

| | |


E-|--------------|-----------------|--------------|----------------------|-----------|-
B-|--------------|-----------------|--------------|----------------------|-----------|-
G-|--------------|-----------------|--------------|----------------------|--7--7-----|-
D-|--7------7----|--7----7----7----|--7------7----|--7----7----7---------|--7--7--7--|-
A-|--7------7----|--7----7----7----|--7------7----|--7----7----7-----)---|--5--5--7--|-
E-|--5------5----|--5----5----5----|--5------5----|--5----5----5----3----|--------5--|- x2

Guitar 2


E-|--------)-------------)----|-----------------------------|
B-|-------5)----x-x-x---5)----|-----------------------------|
G-|-------5-----x-x-x---5-----|----x-x-x--------------------|
D-|---------------------------|----x-x-x-5--x-5-x-5--5-7----|
A-|---------------------------|-----------------------------|
E-|---------------------------|-----------------------------| x4 With Variations

in last bar

Guitar Solo: Play 4 bars in A and move up to F# and play in the
same scale as in the intro. Pentatonic, minor or major I don_t
know…..it_s in F#. The Bass continues to play something
between A and G.

1:56 2:06


E-|-----)~~~~~~~~-------------|-----------------------------------|
B-|----8----------------------|----)---17-----------)---17--------|
G-|---------------------------|--16-------14~~----16--------14~~--|
D-|---------------------------|-----------------------------------|
A-|---------------------------|-----------------------------------|
E-|---------------------------|-----------------------------------|
E-|-----------------------------------|-----------------------------|
B-|--------------------17-------------|-----------------------------|
G-|--14^16^14----14-16--------14~~~~--|--~~~/////~~~~----------|
D-|-----------16----------16----------|-----------------------------|
A-|-----------------------------------|-----------------------------|
E-|-----------------------------------|-----------------------------|

Bass Riff could be played like this during the solo:


G-|---------------------------|-----------------------------|
D-|-----7--7----7-------------|-----7--7-----7--------------|
A-|---------------------------|-----------------------------|
E-|--5-------5-------3--------|--5--------5-------3---------|

Interlude after Solo:

Guitar 1 :


E-|-----------------|-----------|------------------|----------|--------|--------|
B-|-----------------|-----------|------------------|----------|--------|--------|
G-|-----------------|-----------|------------------|----------|--------|--------|
D-|--5---------5^7--|--5--------|--5----------5^7--|--5----7--|--------|--------|
A-|-----------------|-----------|------------------|----------|--------|--------|
E-|-----------------|-----------|------------------|----------|--------|--------|

Guitar 2:


E-|--------------------------------------|-------------------------------------|
B-|--------------------------------------|-------------------------------------|
G-|--------------------------------------|-------------------------------------|
D-|-----7-----7----7-----5------5-----5--|-----9-----9----9-----5------5----5--|
A-|--------------------------------------|-------------------------------------|
E-|--5-----5-----5----3------3-----3-----|--7-----7-----7-----3-----3-----3----|


E-|--------------------------------------|-------------------------------------|
B-|--------------------------------------|-------------------------------------|
G-|--------------------------------------|-------------------------------------|
D-|-----7-----7----7-----5------5-----5--|-----7-----7----7-----9------9----9--|
A-|--------------------------------------|-------------------------------------|
E-|--5-----5-----5----3------3-----3-----|--5-----5-----5-----7-----7-----7----|


E-|--------------------------------------|-------------------------------------|
B-|--------------------------------------|-------------------------------------|
G-|--------------------------------------|-------------------------------------|
D-|-----9-----9----9-----9------9-----9--|-----9-----9----9------9-----9----9--|
A-|--------------------------------------|-------------------------------------|
E-|--7-----7-----7----7------7-----7-----|--7-----7-----7-----7-----7-----7----|

Fills:

1:04


E-|------------------------------------|------------------------------------|
B-|------)-17----)-17----|-------------|------)-17----)-17----|-------------|
G-|----16------16------16--16--14~~~~--|----16------16------16--16--14~~~~--|
D-|------------------------------------|------------------------------------|
A-|------------------------------------|------------------------------------|
E-|------------------------------------|------------------------------------|

1:21


E-|---------------------------|--------------------------------|
B-|----------)-17-------|----|--------------------------------|
G-|--------16---------16------|----14^16^14------------14~~~~--|
D-|---------------------------|--------------16-16-14----------|
A-|---------------------------|--------------------------------|
E-|---------------------------|--------------------------------|

2:50


E-|----------------------------------|-------------------------------------------|
B-|----)-17----)-17----|-------------|----)-17----)-17----|-------------17-------|
G-|--16------16------16--16--14~~~~--|--16------16------16--16-14-16-14----14~~--|
D-|----------------------------------|-------------------------------------------|
A-|----------------------------------|-------------------------------------------|
E-|----------------------------------|-------------------------------------------|
E-|--17~~~~~~~~---------------|
B-|---------------------------|
G-|---------------------------|
D-|---------------------------|
A-|---------------------------|
E-|---------------------------|

3:11


E-|---------------------------|--------------------------|
B-|------17)~~~~~~------------|----)-17----|------------|
G-|------16-------------------|--16------16----14~~~~~~--|
D-|---------------------------|--------------------------|
A-|---------------------------|--------------------------|
E-|---------------------------|--------------------------|

3:16


E-|-------------------------------|------17~~~-------17~~~~-----|
B-|-------------------------------|-----(17)~~----17------------|
G-|--14-14--16-14------14~~~~~----|-----------------------------|
D-|----------------16-------------|-----------------------------|
A-|-------------------------------|-----------------------------|
E-|-------------------------------|-----------------------------|
E-|----17-17-17------------------|---------|---------|---------|
B-|--------------(14)~~~----14--|--x-5----|--x-5----|--x-5----|
G-|---------------14~~~~----14--|--x-5----|--x-5----|--x-5----|
D-|------------------------------|---------|---------|---------|
A-|------------------------------|---------|---------|---------|
E-|------------------------------|---------|---------|---------|
E-|---------------------------|------------------------------|------)--------|
B-|---------------------------|-------------7--5-----7-7--5--|--7--5)--------|
G-|-------5--x-5-x-5-5-x-5-5--|--x-5-x-5-5--7--5-----7-7--5--|--7--5---------|
D-|--5^7----------------------|-------------------7----------|---------------|
A-|---------------------------|------------------------------|---------------|
E-|---------------------------|------------------------------|---------------|
E-|----------------------------|------------------------|
B-|--7/10~~--10/12~~--12/14~~--|------------------------|
G-|----------------------------|--------Fade-Out--------|
D-|----------------------------|------------------------|
A-|----------------------------|------------------------|
E-|----------------------------|------------------------|

16 slide
X mute string
~~ vibrato
) bend
14^16 hammer on
16^14 pull off
) bend & release
| pre-bend & release
|
16 hold bend & play
pm palm muting

To play the this songs, including Walkin’ on Down the Road by Red Hot Chili Peppers by ukulele, the most important basic ukulele chords to learn are C chord, D chord, G chord, and Em chord.
These set you up to play a many of songs, and each of them is easy to learn.

If you are searching for Even You Brutus? ukulele chords, you already visit to the right site.
You can play versatile instrument Even You Brutus? using ukulele or guitar.
This song by Red Hot Chili Peppers can also be played by that instruments.
=

Even You Brutus? chords has rhythm and included in Other Songs album.
You can also get other musical style, including jazz ukulele chords, country music ukulele chords, pop ukulele chords, world music ukulele chords, and rock ukulele chords here.

Even You Brutus? by Red Hot Chili Peppers Ukulele Chords


Intro:

Verse 1:
God is good and fate is great,
when it feels so strong it’s hard to wait.
You never know how it might unfold,
hearts to break and bodies to hold.

Time will tell but it never gets old.
Like I told you I’m in for the long long.

Verse 2:
Had to of been one of those things that took place in outer space.
A match made in heaven, not a scratch on her face.
Angels must have smoked some dust,

singing songs about “In God We Trust”.
Something sly, but this is a must.
Like I told you there’s a time for finding out.

Pre-Chorus 1:
Ahh people try to tell me what not to do,
“You shouldn’t make it with a younger girl.” and
Too many chances for the foot to drop,
I tried to tell ’em that I found a pearl, well…
Like I told you be careful what you’re asking for.

Chorus:
This is to Brutus
Gotta mess of a better hell. Oww
This is to Judas!
Even you never had my back.

Verse 3:
She was the cutest thing that I ever did see.
A drink in her hand and I don’t mean tea.
She was with a dude, but I just didn’t care.
I had to find out, these moments are rare.
And Stevie says, “All is fair.”
Like I told you there is something for everyone.

Pre-Chorus 2:
Well I guess I never told you some things that I really, really wanted to say.
Did I do everything I could do, or did the mice just need to play?
Like I told you there’s more than meets the eye.

Chorus:
This is to Brutus
Gotta mess of a better hell. Oww
This is to Judas!
Even you never had my back.

Break:

Pre-Chorus 3:
I’m not trying to point fingers at you, and I’m not trying to lay any blame.
But when it comes to the punishment, girl you know how to bring the pain.
Like I told you I’d do it all again.

Chorus:
This is to Brutus
I gotta mess of a better hell. Oww
This is to Judas!
Even you never had my back. Come on

Chorus/Outro:
This is to Brutus!
There’s a jury to the woman’s lap. Ow!
This is to Judas!
Even you never had my back

To play the this songs, including Even You Brutus? by Red Hot Chili Peppers by ukulele, the most important basic ukulele chords to learn are C chord, D chord, G chord, and Em chord.
These set you up to play a many of songs, and each of them is easy to master.

If you are looking for The Adventures Of Rain Dance Maggie ukulele chords, you have come to the right place.
You can play versatile instrument The Adventures Of Rain Dance Maggie using ukulele or guitar.
This song by Red Hot Chili Peppers can also be played by that instruments.
=

The Adventures Of Rain Dance Maggie chords has rhythm and included in album.
You can also find another musical genres, including jazz ukulele chords, country music ukulele chords, pop ukulele chords, world music ukulele chords, and rock ukulele chords here.

The Adventures Of Rain Dance Maggie by Red Hot Chili Peppers Ukulele Chords




Lipstick junkie be funkyfunky all he want
shshe came back wearing a smilsmile
LoLook-alike someone drug me
they wawanted to unplug me
No one in here is on ttrial
Its just a turn-around
 
And we go
Oh
well and wwe go
Oh oh oh oh
 
Tic-toc, I want to rrock you like the 80s
CoCock-blocking isn’t allowallowed.
Tug boat sheila is iinto memorabilia
Who said three is a crowd?
We better get it on the go
 

Hey, nnow
We’ve gotta mmake it rain somesomehow
She told me too
And show me what to do
Oh MaMaggie makes it in her clcloud
I said , hey, nnow
We gotta make it rain somesomehow
She told me too
And show me what to do
She kknows how, to make it loud
 

Rain dance maggie advaadvances to the final
Who knew that she had thethe goods?
Little did I know
her body waswas one delicious vinyl
To your neck of thethe woods
I want to lick a little bit
 

Hey, nnow
We’ve gotta make it rain somesomehow
She told me too
And shoshow me what to do
Oh Maggie makes it in her clcloud
 


You got the wwrong girgirl
But not for llong girgirl
Its in a sosong girgirl
Cos I’ll be ggone gigirl
 
Hey, nnow
We’ve gotta make it rain somesomehow
She told me too
And shshow me what to do
Oh Maggie makes it in her ccloud
 
I said
Hey nnow
I want to rorock this valley ccrowd
She told me to
And toltold me what to do
She knoknows how to make itit loud
 

ButBut nnot for longer
Its in a song girl
Cos I’ll be gone bye bye yeah
bye bye, girl
bye bye, girl

To play the most songs, including The Adventures Of Rain Dance Maggie by Red Hot Chili Peppers by ukulele, the most crucial basic ukulele chords to learn are C chord, D chord, G chord, and Em chord.
These set you up to play a a lot of songs, and each of them is easy to learn.

If you are searching for Under The Bridge ukulele chords, you have come to the right place.
You can play versatile instrument Under The Bridge using ukulele or guitar.
This song by Red Hot Chili Peppers can also be played by that instruments.
=

Under The Bridge chords has rhythm and included in album.
You can also get another musical style, including jazz ukulele chords, country music ukulele chords, pop ukulele chords, world music ukulele chords, and rock ukulele chords here.

Under The Bridge by Red Hot Chili Peppers Ukulele Chords

Verse 1
Sometimes I feel like
I don’t have a partner
Sometimes I feel like
My only friend
Is the city I live in
The city of angels?
Lonely as I am
Together we cry
 
Verse 2
I drive on her streets ’cause
She’s my companion
I walk through her hills ’cause
She knows who I am
She sees my good deeds and
She kisses me windy
I never worry,
Now that is a lie
 
Chorus
I don’t ever want to feel
Like I did that day
Take me to the place I love
Take me all the way
Chorus
I don’t ever want to feel
Like I did that day
Take me to the place I love
Take me all the way
 
Verse 3
It’s hard to believe that
There’s nobody out there
It’s hard to believe that
I’m all alone
At least I have her love
The city, she loves me
Lonely as I am
Together we cry
 
Chorus
I don’t ever want to feel
Like I did that day
Take me to the place I love
Take me all the way
 
Chorus
I don’t ever want to feel
Like I did that day
Take me to the place I love
Take me all the way
Oh no, no, no yeah, yeah
 
Coda
One time
Under the bridge downtown
Is where I drew some blood?

To play the most songs, including Under The Bridge by Red Hot Chili Peppers by ukulele, the most important basic ukulele chords to learn are C chord, D chord, G chord, and Em chord.
These set you up to play a ton of songs, and each of them is easy to learn.

If you are searching for Battle Ship ukulele chords, you’ve come to the right site.
You can play versatile instrument Battle Ship using ukulele or guitar.
This song by Red Hot Chili Peppers can also be played by that instruments.
=

Battle Ship chords has rhythm and included in Freaky Styley (1985) album.
You can also get other musical style, including jazz ukulele chords, country music ukulele chords, pop ukulele chords, world music ukulele chords, and rock ukulele chords here.

Battle Ship by Red Hot Chili Peppers Ukulele Chords


Music X Tabs (http://www.mxtabs.net)
JAMES ROBINSON, jirvana100@hotmail.com
Red hot chili peppers
Balle ship

Play the netire song woth distortion.

Verse:

-||————————-|————————-||-
-||————————-|————————-||-
-||————————|————————||-
-||—9—-9–9–9—-7—-|—-7—-7–7–7—-4—||-
-||—-7—-7–7–7—-5—-|—-5—-5–5–5—-2—-||-
-||————————-|————————-||- x2

Chorus:

-||—-7–7–7—7-7–x-7-7—|—-7–7–7—7–7—7–7—-||-
-||—-7–7–7—7-7–x-7-7—|—-7–7–7—7–7—7–7—-||-
-||—-7–7–7—7-7–x-7-7—|—-7–7–7—7–7—7–7—-||-
-||—————————|—————————–||-
-||—————————|—————————–||-
-||—————————|—————————–||-

Bass Verse Riff:

G-||——————————–|——————————–||-
D-||——————————–|——————————–||-
A-||——————————–|——————————–||-
E-||—-7–7–5-5–7—x-7–5–7—-|—-7–7–5-5–7—x-7–5–7—-||-

Bass Chorus Riff:

G-||—————————–|——————————-||-
D-||—————————–|——————————-||-
A-||—-7–7–7——————|—-7–7–7——————–||-
E-||—————3-3—-5-5—-|—————3–3—-5–5—-||-

To play the most songs, including Battle Ship by Red Hot Chili Peppers by ukulele, the most crucial basic ukulele chords to learn are C chord, D chord, G chord, and Em chord.
These set you up to play a ton of songs, and each of them is easy to learn.

If you are searching for Hollywood ukulele chords, you already come to the best site.
You can play versatile instrument Hollywood using ukulele or guitar.
This song by Red Hot Chili Peppers can also be played by that instruments.
=

Hollywood chords has rhythm and included in Freaky Styley (1985) album.
You can also get other musical genres, including jazz ukulele chords, country music ukulele chords, pop ukulele chords, world music ukulele chords, and rock ukulele chords here.

Hollywood by Red Hot Chili Peppers Ukulele Chords


Author/Artist: Red Hot Chili Peppers
Title: Hollywood
Album: Freaky Styley
Transcribed by: Greenie 12

Intro: Played with Chorus

-|—-6—-6–6————————————|-
-|—-5—-5–5————————–3—-5—-|-
-|—-4—-4–4——–2h3–5-3———-3—-5—-|-
-|—-5—-5–5—————–5–3—–3—-5—-|-
-|————————————5————|-
-|————————————————-|- x2

Verse Riff: Clean sound

-|————————————-|————————————|-
-|————————————-|————————————|-
-|—-5–3–x-3————————|–5–3–x-3————————-|-
-|—————x-3–5–x-5-5–5-5—-|————-x-3–5–x–5-5–5-5—-|-
-|————————————-|————————————|-
-|————————————-|————————————|-

Verse Variations:

-|————————————-|——————————–|-
-|————————————-|—————-)-|-|-|–|—–|-
-|—-5–3–x-3————————|–5–3–x-3–x-5–5-5-5–5-p3—|-
-|—————x-3–5–x-5-5–5-5—-|——————————–|-
-|————————————-|——————————–|-
-|————————————-|——————————–|-

Chorus:

-|————————————-|———————————-|-
-|————————————-|—-3—————————–|-
-|—-5–3–x-3————————|—-3——–2——–4———–|-
-|—————x-3–5–x-5-5–5-5—-|—-3——–3——–5———–|-
-|————————————-|—-1——–3——–5———–|-
-|————————————-|————-1——–3———–|-

Guitar Solo: With Chorus

-|————————————————)———-|-
-|—–)–3–6—-6p5p3–5—-)—————–5)–5–3—-|-
-|—-5———————-5–~~~~—5-3-5–5–5—-5–3—-|-
-|————————————————————|-
-|————————————————————|-
-|————————————————————|-

Pinch Harmonic

-|————————————————————————-|-
-|———————————)——————-)——————-|-
-|—-3————–3h5p3—–3–5–5–3—5–5—3–5–5–3–5–5-3~~—-|-
-|——-5-5—-3h5———5———————————————|-
-|————————————————————————-|-
-|————————————————————————-|-

) ) )~~~~

-|—)~~~~———————-6–8–8-6——–6–8–8-6————6–8——|-
-|–6——6–3—6p5p3–5—8————-8-8~~————8-8~~–8————|-
-|——————————————————————————|-
-|——————————————————————————|-
-|——————————————————————————|-
-|——————————————————————————|-

Chorus 2 & 3 : Played by another guitar with chorus

-|——————)—-|——————————-|-
-|———–3—–5)—-|—-3————————–|-
-|———–3—–5——|—-3——–2——–4——–|-
-|——–5—–5———|—-3——–3——–5——–|-
-|————————|—-1——–3——–5——–|-
-|————————|————-1——–3——–|-

To play the most songs, including Hollywood by Red Hot Chili Peppers by ukulele, the most crucial basic ukulele chords to learn are C chord, D chord, G chord, and Em chord.
These set you up to play a many of songs, and each of them is easy to master.

If you are searching for Battle Ship ukulele chords, you have visit to the best site.
You can play versatile instrument Battle Ship using ukulele or guitar.
This song by Red Hot Chili Peppers can also be played by that instruments.
=

Battle Ship chords has rhythm and included in Freaky Styley (1985) album.
You can also get another musical genres, including jazz ukulele chords, country music ukulele chords, pop ukulele chords, world music ukulele chords, and rock ukulele chords here.

Battle Ship by Red Hot Chili Peppers Ukulele Chords


Music X Tabs (http://www.mxtabs.net)
JAMES ROBINSON, jirvana100@hotmail.com
Red hot chili peppers
Balle ship

Play the netire song woth distortion.

Verse:

-||————————-|————————-||-
-||————————-|————————-||-
-||————————|————————||-
-||—9—-9–9–9—-7—-|—-7—-7–7–7—-4—||-
-||—-7—-7–7–7—-5—-|—-5—-5–5–5—-2—-||-
-||————————-|————————-||- x2

Chorus:

-||—-7–7–7—7-7–x-7-7—|—-7–7–7—7–7—7–7—-||-
-||—-7–7–7—7-7–x-7-7—|—-7–7–7—7–7—7–7—-||-
-||—-7–7–7—7-7–x-7-7—|—-7–7–7—7–7—7–7—-||-
-||—————————|—————————–||-
-||—————————|—————————–||-
-||—————————|—————————–||-

Bass Verse Riff:

G-||——————————–|——————————–||-
D-||——————————–|——————————–||-
A-||——————————–|——————————–||-
E-||—-7–7–5-5–7—x-7–5–7—-|—-7–7–5-5–7—x-7–5–7—-||-

Bass Chorus Riff:

G-||—————————–|——————————-||-
D-||—————————–|——————————-||-
A-||—-7–7–7——————|—-7–7–7——————–||-
E-||—————3-3—-5-5—-|—————3–3—-5–5—-||-

To play the most songs, including Battle Ship by Red Hot Chili Peppers by ukulele, the most important basic ukulele chords to learn are C chord, D chord, G chord, and Em chord.
These set you up to play a a lot of songs, and each of them is easy to master.

  • 1
  • 2