If you are searching for Deathbed ukulele chords, you have visit to the best site.
You can play versatile instrument Deathbed using ukulele or guitar.
This song by Relient K can also be played by that instruments.
=

Deathbed chords has rhythm and included in Five Score and Seven Years Ago (2007) album.
You can also find another musical genres, including jazz ukulele chords, country music ukulele chords, pop ukulele chords, world music ukulele chords, and rock ukulele chords here.

Deathbed by Relient K Ukulele Chords


Death Bed
Relient K

Into.

–1-0——————————————————-7——
——1—–3-3/5——-3-3/5——-3-3/5—-5-3-1-1—3-1–3——
——–0-2——-2—2——-2—2——-2——–0——–0—— 2x
—————————————————2—————
——————————————————————-
——————————————————————-

[-]
[-]

Verse 1

[-]
[-]
[-]
[-]
[-]
[-]
[-]
[-]
[-] [C/G] [D/F#]
[-]
[-]
– D Am? C G

[-] [A/G][A/F#]
[-]
[-]
[-]

Chorus

–1-0——————————————————-7——
——1—–3-3/5——-3-3/5——-3-3/5—-5-3-1-1—3-1–3——
——–0-2——-2—2——-2—2——-2——–0——–0—— 2x
—————————————————2—————
——————————————————————-
——————————————————————-

But this
If I..

Verse 2 Same as verse 1

Then Jesus…
[C/G] [D/F#]



G/E D? D/F# A

D Bm? A?

A? G D/F# A

[D/F#]
[D/F#]
[D/F#]
[D/F#]

Chorus


I can’t believe…

[G/D]

G/D D repeat mulitple times

I am the W[D/F#]ay..[D/B][G/A]
[D/F#] [D/B] [D/A]
[D/F#] [D/C]
[A/C#]
D G B, A/C# D

To play the most songs, including Deathbed by Relient K by ukulele, the most crucial basic ukulele chords to learn are C chord, D chord, G chord, and Em chord.
These set you up to play a many of songs, and each of them is easy to master.

If you are searching for Bite My Tongue ukulele chords, you’ve come to the best site.
You can play versatile instrument Bite My Tongue using ukulele or guitar.
This song by Relient K can also be played by that instruments.
=

Bite My Tongue chords has rhythm and included in Five Score and Seven Years Ago (2007) album.
You can also get another musical style, including jazz ukulele chords, country music ukulele chords, pop ukulele chords, world music ukulele chords, and rock ukulele chords here.

Bite My Tongue by Relient K Ukulele Chords


Album-Five Score And Seven Years Ago
Drop D tuning down 1/2 step (Drop Db/C#)

This is the first full tab of the song.

Intro
Gtr. 1(light palm mute)


Eb[-----10----10----10----10----10----10----10----10--]
Bb[--10----10----10----10----10----10----10----10-----]
Gb[---------------------------------------------------]

. . . . . . . . . . . . . . . .


Eb[-----9----9----9----9----9----9----9----9--]
Bb[--10---10---10---10---10---10---10---10----]
Gb[-------------------------------------------]

. . . . . . . . . . . . . . . .


Eb[-----10----10----10----10----10----10----10----10--]
Bb[--10----10----10----10----10----10----10----10-----]
Gb[---------------------------------------------------]

. . . . . . . . . . . . . . . .


Eb[-----10----10----10----10----12----12----12----12--]
Bb[--10----10----10----10----10----10----10----10-----](repeat
Gb[---------------------------------------------------] intro)

. . . . . . . . . . . . . . . .
Gtr. 2 (comes in on gtr. 1s third line)


Gb[-----------------------------------------]
Db[--5-----4---7---0-----7-----5-----4---7--]
Ab[--5-----5---7---0-----7-----5-----5---7--]
Db[--5-----4---7---0-----7-----5-----4---7--]

Verse 1 (not exactly sure whats being played here,
so here are the chords)
D Bm G (chords relative to Drop Db/C# tuning)

Pre-Chorus


Db[-------------------------------------------------------------------]
Ab[--5-5-5-5-5-5-5-5-7-7-7-7-7-7-7-7-9-9-9-9-9-9-9-9-9-9-9-9-9-9-9-9--]
Db[--5-5-5-5-5-5-5-5-7-7-7-7-7-7-7-7-9-9-9-9-9-9-9-9-9-9-9-9-9-9-9-9--]

. . . . . . . . . . . . . . . . . . . . . . . . . . . . . . . .


Db[-------------------------------------------------------------------]
Ab[--5-5-5-5-5-5-5-5-7-7-7-7-7-7-7-7-9-9-9-9-9-9-9-9-9-9-9-9-9-9-9-9--]
Db[--5-5-5-5-5-5-5-5-7-7-7-7-7-7-7-7-9-9-9-9-9-9-9-9-9-9-9-9-9-9-9-9--]

. . . . . . . . . . . . . . . . . . . . . . . . . . . . . . . .
(gradually remove)


Gb[---------------------------]
Db[--5---7---9-----5---7---9--]
Ab[--5---7---9-----5---7---9--]
Db[--5---7---9-----5---7---9--]

Chorus
Gtr. 1(light palm mute)


Eb[-----10----10----10----10----10----10----10----10--]
Bb[--10----10----10----10----10----10----10----10-----]
Gb[---------------------------------------------------]

. . . . . . . . . . . . . . . .


Eb[-----9----9----9----9----9----9----9----9--]
Bb[--10---10---10---10---10---10---10---10----]
Gb[-------------------------------------------]

. . . . . . . . . . . . . . . .


Eb[-----10----10----10----10----10----10----10----10--]
Bb[--10----10----10----10----10----10----10----10-----]
Gb[---------------------------------------------------]

. . . . . . . . . . . . . . . .


Eb[-----10----10----10----10----12----12----12----12--]
Bb[--10----10----10----10----10----10----10----10-----]
Gb[---------------------------------------------------]

. . . . . . . . . . . . . . . .
Gtr. 2


Gb[---------------------------]
Db[--0-----7-----5-----4---7--]
Ab[--0-----7-----5-----5---7--]
Db[--0-----7-----5-----4---7--]

Verse 2
Gtr. 1


Eb[---------------------------------------------------]
Bb[--10-10-10-10-10-10-10-10-10-10-10-10-10-10-10-10--]
Gb[---7--7--7--7--7--7--7--7--7--7--7--7--7--7--7--7--]
Eb[----------------------------------]
Bb[--5-5-5-5-5-5-5-5-7-7-7-7-7-7-7-7-](repeat
Gb[--7-7-7-7-7-7-7-7-7-7-7-7-7-7-7-7-] verse)

Gtr. 2


Db[-------------------------------------------------------------------]
Ab[--0-0-0-0-0-0-0-0-0-0-0-0-0-0-0-0-9-9-9-9-9-9-9-9-5-5-5-5-5-5-5-5--]
Db[--0-0-0-0-0-0-0-0-0-0-0-0-0-0-0-0-9-9-9-9-9-9-9-9-5-5-5-5-5-5-5-5--]

. . . . . . . . . . . . . . . . . . . . . . . . . . . . . . . .


Db[-------------------------------------------------------------------]
Ab[--0-0-0-0-0-0-0-0-0-0-0-0-0-0-0-0-9-9-9-9-9-9-9-9-5-5-5-5-5-5-5-5--]
Db[--0-0-0-0-0-0-0-0-0-0-0-0-0-0-0-0-9-9-9-9-9-9-9-9-5-5-5-5-5-5-5-5--]

. . . . . . . . . . . . . . . . . . . . . . . . . . . . . . . .
Pre-Chorus 2
Gtr. 1


Eb[---------------------------------------------------]
Bb[--10-10-10-10-10-10-10-10-10-10-10-10-10-10-10-10--](play 3x)
Gb[---7--7--7--7--7--7--7--7--7--7--7--7--7--7--7--7--]

Gtr. 2


Gb[-----------------------]
Db[--5---7---9-----5---7--]
Ab[--5---7---9-----5---7--]
Db[--5---7---9-----5---7--]

(Chorus 2x)

Bridge


Db[-------------------------------------------------------------------]
Ab[--9-9-9-9-9-9-9-9-9-9-9-9-9-9-9-9-5-5-5-5-5-5-5-5-5-5-5-5-5-5-5-5--]
Db[--9-9-9-9-9-9-9-9-9-9-9-9-9-9-9-9-5-5-5-5-5-5-5-5-5-5-5-5-5-5-5-5--]

. . . . . . . . . . . . . . . . . . . . . . . . . . . . . . . .


Db[-------------------------------------------------------------------]
Ab[--0-0-0-0-0-0-0-0-0-0-0-0-0-0-0-0-4-4-4-4-4-4-4-4-4-4-4-4-4-4-4-4--]
Db[--0-0-0-0-0-0-0-0-0-0-0-0-0-0-0-0-4-4-4-4-4-4-4-4-4-4-4-4-4-4-4-4--]

. . . . . . . . . . . . . . . . . . . . . . . . . . . . . . . .


Db[-------------------------------------------------------------------]
Ab[--9-9-9-9-9-9-9-9-9-9-9-9-9-9-9-9-5-5-5-5-5-5-5-5-5-5-5-5-5-5-5-5--]
Db[--9-9-9-9-9-9-9-9-9-9-9-9-9-9-9-9-5-5-5-5-5-5-5-5-5-5-5-5-5-5-5-5--]

. . . . . . . . . . . . . . . . . . . . . . . . . . . . . . . .


Db[-------------------------------------------------------------------]
Ab[--0-0-0-0-0-0-0-0-0-0-0-0-0-0-0-0-4-4-4-4-4-4-4-4-4-4-4-4-4-4-4-4--]
Db[--0-0-0-0-0-0-0-0-0-0-0-0-0-0-0-0-4-4-4-4-4-4-4-4-4-4-4-4-4-4-4-4--]

. . . . . . . . . . . . . . . . . . . . . . . . . . . . . . . .


Db[-------------------------------------------------------------------]
Ab[--5-5-5-5-5-5-5-5-5-5-5-5-5-5-5-5-7-7-7-7-7-7-7-7-7-7-7-7-7-7-7-7--]
Db[--5-5-5-5-5-5-5-5-5-5-5-5-5-5-5-5-7-7-7-7-7-7-7-7-7-7-7-7-7-7-7-7--]

. . . . . . . . . . . . . . . . . . . . . . . . . . . . . . . .
Chorus 2
Gtr. 1


Eb[--10-10-10-10-10-10-10-10-10-10-10-10-10-10-10-10--]
Bb[--10-10-10-10-10-10-10-10-10-10-10-10-10-10-10-10--]
Gb[---------------------------------------------------]

. . . . . . . . . . . . . . . .


Eb[---9--9--9--9--9--9--9--9--9--9--9--9--9--9--9--9--]
Bb[--10-10-10-10-10-10-10-10-10-10-10-10-10-10-10-10--]
Gb[---------------------------------------------------]

. . . . . . . . . . . . . . . .
Gtr. 2


Db[-------------------------------------------------------------------]
Ab[--5-5-5-5-5-5-5-5-5-5-5-5-5-5-5-5----------------------------------]
Db[----------------------------------7-7-7-7-7-7-7-7-7-7-7-7-7-7-7-7--]

. . . . . . . . . . . . . . . . . . . . . . . . . . . . . . . .
Then, Gtr. 2


G[---------------]
D[--5-----4---7--]
A[--5-----5---7--]
D[--5-----4---7--]

(Chorus 2x)

End on


Gb[----------]

Db[–0~~~~~–]
Ab[–0~~~~~–]
Db[–0~~~~~–]

To play the most songs, including Bite My Tongue by Relient K by ukulele, the most important basic ukulele chords to learn are C chord, D chord, G chord, and Em chord.
These set you up to play a a lot of songs, and each of them is easy to learn.

If you are searching for Forgiven ukulele chords, you already come to the right place.
You can play versatile instrument Forgiven using ukulele or guitar.
This song by Relient K can also be played by that instruments.
=

Forgiven chords has rhythm and included in Five Score and Seven Years Ago (2007) album.
You can also get other musical genres, including jazz ukulele chords, country music ukulele chords, pop ukulele chords, world music ukulele chords, and rock ukulele chords here.

Forgiven by Relient K Ukulele Chords


Album-Five Score And Seven Years Ago
Tune down 1/2 step (Eb)

The other version of this song was ok, but the verses and some other parts were a bit off.

Key:
.palm mute
xmute
s>slide up
~let ring

Verse 1


Eb[----------------------------------------------------------------------------------]
Bb[----------------------------------------------------------------------------------]
Gb[--9-9-9-9-9-9-9-9-9-9-9-9-9-9-9-9-12-12-12-12-12-12-12-12-12-12-12-12-12-12-12-12-]

. . . . . . . . . . . . . . . . . . . . . . . . . . . . . . . .


Eb[----------------------------------------------------------------------------------]
Bb[----------------------------------------------------------------------------------]
Gb[--7-7-7-7-7-7-7-7-7-7-7-7-7-7-7-7-11-11-11-11-11-11-11-11-11-11-11-11-11-11-11-11-]

. . . . . . . . . . . . . . . . . . . . . . . . . . . . . . . .


Eb[----------------------------------------------------------------------------------]
Bb[----------------------------------12-12-12-12-12-12-12-12-12-12-12-12-12-12-12-12-]
Gb[--9-9-9-9-9-9-9-9-9-9-9-9-9-9-9-9-------------------------------------------------]

. . . . . . . . . . . . . . . . . . . . . . . . . . . . . . . .


Eb[-------------------------------------------------------------------]
Bb[-------------------------------------------------------------------](repeat verse)
Gb[--9-9-9-9-9-9-9-9-9-9-9-9-9-9-9-9-9-9-9-9-9-9-9-9-9-9-9-9-9-9-9-9--]

. . . . . . . . . . . . . . . . . . . . . . . . . . . . . . . .
Pre-Chorus
Gtr. 1


Eb[--0-0-0-0-0-0-0-0-0-0-0-0-0-0-0-0-0-0-0-0-0-0-0-0-0-0-0-0-0-0-0-0-]
Bb[--8-8-8-8-7-7-7-7-8-8-8-8-7-7-7-7-8-8-8-8-7-7-7-7-8-8-8-8-7-7-7-7-]
Gb[------------------------------------------------------------------]
Eb[--0-0-0-0-0-0-0-0-0-0-0-0-0-0-0-0--]
Bb[--4-4-4-4-4-4-4-4-7-7-7-7-7-7-7-7--]
Gb[-----------------------------------]

Gtr. 2


Gb[--7-----5-----4---8--]
Db[--7-----5-----4---9--]
Ab[--5-----3-----2---6--]
Eb[---------------------]

Chorus
Gtr. 1


Gb[--13-------14-------6----13----8----11--]
Db[---x--------x-------x-----x----x-----x--]
Ab[--11-------12-------4----11----6-----9--]
Eb[----------------------------------------]
Gb[--13-------14-------6----13----11--]
Db[---x--------x-------x-----x-----x--]
Ab[--11-------12-------4----11-----9--]
Eb[-----------------------------------]

Gtr. 2


Gb[------------------6-------4--]
Db[--2-------7-------6-------4--](repeat)
Ab[--2-------7-------4-------2--]
Eb[--0-------5------------------]

Verse 2


Eb[----------------------------------------------------------------------------------]
Bb[----------------------------------------------------------------------------------]
Gb[--9-9-9-9-9-9-9-9-9-9-9-9-9-9-9-9-12-12-12-12-12-12-12-12-12-12-12-12-12-12-12-12-]

. . . . . . . . . . . . . . . . . . . . . . . . . . . . . . . .


Eb[----------------------------------------------------------------------------------]
Bb[----------------------------------------------------------------------------------]
Gb[--7-7-7-7-7-7-7-7-7-7-7-7-7-7-7-7-11-11-11-11-11-11-11-11-11-11-11-11-11-11-11-11-]

. . . . . . . . . . . . . . . . . . . . . . . . . . . . . . . .


Eb[----------------------------------------------------------------------------------]
Bb[----------------------------------12-12-12-12-12-12-12-12-12-12-12-12-12-12-12-12-]
Gb[--9-9-9-9-9-9-9-9-9-9-9-9-9-9-9-9-------------------------------------------------]

. . . . . . . . . . . . . . . . . . . . . . . . . . . . . . . .


Eb[-------------------------------------------------------------------]
Bb[-------------------------------------------------------------------]
Gb[--9-9-9-9-9-9-9-9-9-9-9-9-9-9-9-9-9-9-9-9-9-9-9-9-9-9-9-9-9-9-9-9--]

. . . . . . . . . . . . . . . . . . . . . . . . . . . . . . . .


Eb[----------------------------------------------------------------------------------]
Bb[----------------------------------------------------------10-10-10-10-10-10-10-10-]
Gb[--9-9-9-9-9-9-9-9-9-9-9-9-9-9-9-9-12-12-12-12-12-12-12-12-------------------------]

. . . . . . . . . . . . . . . . . . . . . . . . . . . . . . . .


Eb[---------------------------------------------------------------------------]
Bb[--12-12-12-12-12-12-12-12-12-12-12-12-12-12-12-12-10-10-10-10-10-10-10-10--]
Gb[---------------------------------------------------------------------------]

. . . . . . . . . . . . . . . . . . . . . . . .


Eb[---------------------------------------------------------------------------]
Bb[--------------------------10-10-10-10-10-10-10-10-10-10-10-10-10-10-10-10--]
Gb[--12-12-12-12-12-12-12-12--------------------------------------------------]

. . . . . . . . . . . . . . . . . . . . . . . .


Eb[--------------------------------------------------]
Bb[--13-13-13-13-13-13-13-13-12-12-12-12-12-12-12-12-]
Gb[--------------------------------------------------]

. . . . . . . . . . . . . . . .


Eb[-------------------------------------------------------------------]
Bb[-------------------------------------------------------------------]
Gb[--9-9-9-9-9-9-9-9-9-9-9-9-9-9-9-9-9-9-9-9-9-9-9-9-9-9-9-9-9-9-9-9--]

. . . . . . . . . . . . . . . . . . . . . . . . . . . . . . . .
Pre-Chorus 2
Gtr. 1


Gb[--7--7--7--7--7--7s>-16-16-14-14---5--5--5--5--5--5s>-16-16-14-14---4---8--]
Db[--7--7--7--7--7--7s>--x--x--x--x---5--5--5--5--5--5s>--x--x--x--x---4---9--]
Ab[--5--5--5--5--5--5s>-14-14-12-12---3--3--3--3--3--3s>-14-14-12-12---2---6--]
Eb[---------------------------------------------------------------------------]

Gtr. 2


Gb[--7--7--7--7--7--7s>-12-12-11-11---5--5--5--5--5--5s>-12-12-11-11---4---8--]
Db[--7--7--7--7--7--7s>--x--x--x--x---5--5--5--5--5--5s>--x--x--x--x---4---9--]
Ab[--5--5--5--5--5--5s>-10-10--9--9---3--3--3--3--3--3s>-12-12--9--9---2---6--]
Eb[---------------------------------------------------------------------------]

(Chorus)

Bridge (theres only one guitar part in the bridge)
Eb[–12–]w/whammy bar
Bb[–12–]


Gb[------]

(Chorus)

Outro


Eb[----------------------------------------------------------------------------------]
Bb[----------------------------------------------------------------------------------]
Gb[--9-9-9-9-9-9-9-9-9-9-9-9-9-9-9-9-12-12-12-12-12-12-12-12-12-12-12-12-12-12-12-12-]

. . . . . . . . . . . . . . . . . . . . . . . . . . . . . . . .


Eb[----------------------------------------------------------------------------------]
Bb[----------------------------------------------------------------------------------]
Gb[--7-7-7-7-7-7-7-7-7-7-7-7-7-7-7-7-11-11-11-11-11-11-11-11-11-11-11-11-11-11-11-11-]

. . . . . . . . . . . . . . . . . . . . . . . . . . . . . . . .


Eb[----------------------------------------------------------------------------------]
Bb[----------------------------------12-12-12-12-12-12-12-12-12-12-12-12-12-12-12-12-]
Gb[--9-9-9-9-9-9-9-9-9-9-9-9-9-9-9-9-------------------------------------------------]

. . . . . . . . . . . . . . . . . . . . . . . . . . . . . . . .


Eb[-------------------------------------------------------------------]
Bb[-------------------------------------------------------------------]
Gb[--9-9-9-9-9-9-9-9-9-9-9-9-9-9-9-9-9-9-9-9-9-9-9-9-9-9-9-9-9-9-9-9--]

. . . . . . . . . . . . . . . . . . . . . . . . . . . . . . . .


Eb[----------------------------------------------------------------------------------]
Bb[----------------------------------------------------------------------------------]
Gb[--9-9-9-9-9-9-9-9-9-9-9-9-9-9-9-9-12-12-12-12-12-12-12-12-12-12-12-12-12-12-12-12-]

. . . . . . . . . . . . . . . . . . . . . . . . . . . . . . . .


Eb[----------------------------------------------------------------------------------]
Bb[----------------------------------------------------------------------------------]
Gb[--7-7-7-7-7-7-7-7-7-7-7-7-7-7-7-7-11-11-11-11-11-11-11-11-11-11-11-11-11-11-11-11-]

. . . . . . . . . . . . . . . . . . . . . . . . . . . . . . . .


Eb[-----------------------------------------0~~~~~--]
Bb[----------------------------------12~~~~-0~~~~~--]
Gb[--9-9-9-9-9-9-9-9-9-9-9-9-9-9-9-9--------0~~~~~--]
Db[-----------------------------------------2~~~~~--]
Ab[-----------------------------------------2~~~~~--]
Eb[-----------------------------------------0~~~~~--]

. . . . . . . . . . . . . . . .

To play the this songs, including Forgiven by Relient K by ukulele, the most important basic ukulele chords to learn are C chord, D chord, G chord, and Em chord.
These set you up to play a ton of songs, and each of them is easy to learn.

If you are searching for God ukulele chords, you have visit to the best place.
You can play versatile instrument God using ukulele or guitar.
This song by Relient K can also be played by that instruments.
=

God chords has rhythm and included in Air for Free (2016) album.
You can also find another musical genres, including jazz ukulele chords, country music ukulele chords, pop ukulele chords, world music ukulele chords, and rock ukulele chords here.

God by Relient K Ukulele Chords

Key: C

[Verse 1]
I believe in night, I believe in day
I believe there’s a light coming back around again
I believe You’re right, cause I believe there’s a way
I believe I might have some catching up to do

[Pre-Chorus]
Oh, oh, oh, the voices are growing strong
Oh oh, oh oh oh, the rumbling of thunder a rolling drum
Let Your Kingdom come


I believe in God, I believe in God
Oh oh, oh oh oh, I believe that I, I believe enough
So help me God
I believe in love, I believe in us
Oh oh, oh oh oh, and I believe the sky was made for me to touch[-]
I believe the sky was made for me to touch

[Verse 2]
I believe in peace when it’s sweeping over me
I believe in fear when I feel courageous
And I believe this life is more than tangible
And I believe the sky is going on for ages

[Pre-Chorus]
Oh, oh, oh, the voices are growing strong
Oh oh, oh oh oh, the rumbling of thunder a rolling drum
Let Your Kingdom come


I believe in God, I believe in God
Oh oh, oh oh oh, I believe that I, I believe enough
So help me God
I believe in love, I believe in us
Oh oh, oh oh oh, and I believe the sky was made for me to touch
Was made for me to touch[-]
I believe the sky was made for me to touch


I yelled in the wind
He came rolling back to sweep me off my feet
I cried to the rain
He came pouring down to [F/A]drown my disbelief, oh oh, oh oh oh


I believe in God, I believe in God
Oh oh, oh oh oh, I believe that I, I do believe enough
So help me God
I believe in love, I believe in us
Oh oh, oh oh oh, and I believe the sky was made for me to touch
Oh oh, oh oh oh, I believe in God, I believe in God
Oh oh, oh oh oh, and I believe the sky was made for me to touch
Was made for me to touch
Was made for me to touch
Was made for me to touch

To play the this songs, including God by Relient K by ukulele, the most important basic ukulele chords to learn are C chord, D chord, G chord, and Em chord.
These set you up to play a ton of songs, and each of them is easy to learn.

If you are searching for Prodigal ukulele chords, you’ve visit to the right site.
You can play versatile instrument Prodigal using ukulele or guitar.
This song by Relient K can also be played by that instruments.
=

Prodigal chords has rhythm and included in Air for Free (2016) album.
You can also find another musical genres, including jazz ukulele chords, country music ukulele chords, pop ukulele chords, world music ukulele chords, and rock ukulele chords here.

Prodigal by Relient K Ukulele Chords

Key: C

(Verse 1)
Sweet Jesus, I was coming to pray
But all the hip kids sent You running aw[C/E]ay
You got egg on your face, but the faithful keep washing your feet
Wish it was simple but it’s trouble to say
Cause nobody believes that there’s a debt to be p[C/E]aid
For the things that come easy day after day, week after week

(Chorus)
I am the champion of w[F/A]ine
You’re the bread on my tongue
I am the last one in li[F/A]ne
The prodigal
I am the champion of w[F/A]ine
You’re the bread on my tongue
I am the last one in l[F/A]ine
The prodigal son

(Verse 2)
Sweet Jesus, I was coming to pray
But Lord, I’ve been so busy and it kept me aw[C/E]ay
I got egg on my face, so I hide away where no one can see
Wish it was simple but it’s trouble to say
Cause nobody believes that there’s a debt to be pa[C/E]id
For the things that come easy day after day, week after week

(Chorus)
I am the champion of w[F/A]ine
You’re the bread on my tongue
I am the last one in li[F/A]ne
The prodigal son
I am the champion of w[F/A]ine
You’re the bread on my tongue
I am the last one in l[F/A]ine
The prodigal

(Ending)
Sweet Jesus, I was coming to pray (I am the champion of wine)
But [F/A]all the hip kids sent You running away (You’re the bread on my tongue)
You got egg on your face (I am the last one in line)
But the faithful keep washing your fe[F/A]et (The prodigal son)
Wish it was simple but it’s trouble to say (I am the champion of wine)
Cause n[F/A]obody believes that there’s a debt to be paid (You’re the bread on my tongue)
For the things that come easy day after day, week after we[F/A]ek (I am the last one in line, the prodigal)

To play the this songs, including Prodigal by Relient K by ukulele, the most important basic ukulele chords to learn are C chord, D chord, G chord, and Em chord.
These set you up to play a ton of songs, and each of them is easy to learn.