If you are searching for Chains ukulele chords, you’ve visit to the right place.
You can play versatile instrument Chains using ukulele or guitar.
This song by Robots in Disguise can also be played by that instruments.
=

Chains chords has rhythm and included in Happiness v Sadness (2011) album.
You can also get another musical style, including jazz ukulele chords, country music ukulele chords, pop ukulele chords, world music ukulele chords, and rock ukulele chords here.

Chains by Robots in Disguise Ukulele Chords

Song: Chains
Artist: Robots in Disguise
Album: Happiness v Sadness


---------------------------

Tabbed by Antilo – www.youtube.com/user/therealantilo


---------------------------

Standard tuning

Key :


-------

~ Hold


-------

Intro

“Ooh la la la la la lalalalala”


e|-5--------5~-------5~-------5~-|
B|-5--------5~-------5~-------5~-|
G|-6--------6~-------6~-------6~-|
D|-7xxxxxxx-7~-------7~-------7~-|
A|-7xxxxxxx-5~-------5~-------5~-|
E|-5xxxxxxx-5~-------5~-------5~-|

Chorus

“Chains (chains), chains (chains), chains (chains)”


e|-3--x-3-3-3-3-3-3---2--x-2-2-2-2-2-2---5--x-5-5-5-5-5-5---5--x-5-5-5-5-5-5-|
B|-3--x-3-3-3-3-3-3---3--x-3-3-3-3-3-3---5--x-5-5-5-5-5-5---5--x-5-5-5-5-5-5-|
G|-4--x-4-4-4-4-4-4---4--x-4-4-4-4-4-4---6--x-6-6-6-6-6-6---6--x-6-6-6-6-6-6-|x4
D|-5--x-5-5-5-5-5-5---4--x-4-4-4-4-4-4---7--x-7-7-7-7-7-7---7--x-7-7-7-7-7-7-|
A|-5--x-5-5-5-5-5-5---2--x-2-2-2-2-2-2---7--x-7-7-7-7-7-7---7--x-7-7-7-7-7-7-|
E|-3--x-3-3-3-3-3-3---x--x-x-x-x-x-x-x---5--x-5-5-5-5-5-5---5--x-5-5-5-5-5-5-|

“Everywhere oh where oh where oh where oh where oh where oh”


e|-3--------------------------------5-------------------------------|
B|-3--------------------------------5-------------------------------|
G|-4--------------------------------6-------------------------------|x2
D|-5-x-x-x-x-x-x-x-x-x-x-x-x-x-x-x--7-x-x-x-x-x-x-x-x-x-x-x-x-x-x-x-|
A|-5-x-x-x-x-x-x-x-x-x-x-x-x-x-x-x--7-x-x-x-x-x-x-x-x-x-x-x-x-x-x-x-|
E|-3-x-x-x-x-x-x-x-x-x-x-x-x-x-x-x--5-x-x-x-x-x-x-x-x-x-x-x-x-x-x-x-|

Verse

“I looked everywhere, everywhere I found you”


e|-----------------------------------------------------------------|
B|-----------------------------------------------------------------|
G|-----7-------7------7-------7---------4-------4------4-------4---|x3
D|-5-5---5-5-5---5--5---5-5-5---5---2-2---2-2-2---2--2---2-2-2---2-|
A|-----------------------------------------------------------------|
E|-----------------------------------------------------------------|
e|--------------------------------|
B|--------------------------------|
G|-----4-------4------4-------4---|
D|-2-2---2-2-2---2--2---2-2-2---2-|
A|--------------------------------|
E|--------------------------------|

Chorus

“Chains (chains), chains (chains), chains (chains)”


e|-3--x-3-3-3-3-3-3---2--x-2-2-2-2-2-2---5--x-5-5-5-5-5-5---5--x-5-5-5-5-5-5-|
B|-3--x-3-3-3-3-3-3---3--x-3-3-3-3-3-3---5--x-5-5-5-5-5-5---5--x-5-5-5-5-5-5-|
G|-4--x-4-4-4-4-4-4---4--x-4-4-4-4-4-4---6--x-6-6-6-6-6-6---6--x-6-6-6-6-6-6-|x4
D|-5--x-5-5-5-5-5-5---4--x-4-4-4-4-4-4---7--x-7-7-7-7-7-7---7--x-7-7-7-7-7-7-|
A|-5--x-5-5-5-5-5-5---2--x-2-2-2-2-2-2---7--x-7-7-7-7-7-7---7--x-7-7-7-7-7-7-|
E|-3--x-3-3-3-3-3-3---x--x-x-x-x-x-x-x---5--x-5-5-5-5-5-5---5--x-5-5-5-5-5-5-|

“Everywhere oh where oh where oh where oh where oh where oh”


e|-3--------------------------------5-------------------------------|
B|-3--------------------------------5-------------------------------|
G|-4--------------------------------6-------------------------------|x2
D|-5-x-x-x-x-x-x-x-x-x-x-x-x-x-x-x--7-x-x-x-x-x-x-x-x-x-x-x-x-x-x-x-|
A|-5-x-x-x-x-x-x-x-x-x-x-x-x-x-x-x--7-x-x-x-x-x-x-x-x-x-x-x-x-x-x-x-|
E|-3-x-x-x-x-x-x-x-x-x-x-x-x-x-x-x--5-x-x-x-x-x-x-x-x-x-x-x-x-x-x-x-|

Verse

“You’re in everyone, Everyone is you, In the 123, In the 452”


e|-----------------------------------------------------------------|
B|-----------------------------------------------------------------|
G|-----7-------7------7-------7---------4-------4------4-------4---|x3
D|-5-5---5-5-5---5--5---5-5-5---5---2-2---2-2-2---2--2---2-2-2---2-|
A|-----------------------------------------------------------------|
E|-----------------------------------------------------------------|
e|--------------------------------|
B|--------------------------------|
G|-----4-------4------4-------4---|
D|-2-2---2-2-2---2--2---2-2-2---2-|
A|--------------------------------|
E|--------------------------------|

Chorus

“Chains (chains), chains (chains), chains (chains)”


e|-3--x-3-3-3-3-3-3---2--x-2-2-2-2-2-2---5--x-5-5-5-5-5-5---5--x-5-5-5-5-5-5-|
B|-3--x-3-3-3-3-3-3---3--x-3-3-3-3-3-3---5--x-5-5-5-5-5-5---5--x-5-5-5-5-5-5-|
G|-4--x-4-4-4-4-4-4---4--x-4-4-4-4-4-4---6--x-6-6-6-6-6-6---6--x-6-6-6-6-6-6-|x4
D|-5--x-5-5-5-5-5-5---4--x-4-4-4-4-4-4---7--x-7-7-7-7-7-7---7--x-7-7-7-7-7-7-|
A|-5--x-5-5-5-5-5-5---2--x-2-2-2-2-2-2---7--x-7-7-7-7-7-7---7--x-7-7-7-7-7-7-|
E|-3--x-3-3-3-3-3-3---x--x-x-x-x-x-x-x---5--x-5-5-5-5-5-5---5--x-5-5-5-5-5-5-|

Solo

Random words part!


e|------------------------|
B|------------------------|
G|---7-----6-----4--------|x4
D|-5---5-4---4-2---2-2--4-|
A|------------------------|
E|------------------------|

Chorus

“Chains (chains), chains (chains), chains (chains)”


e|-3--x-3-3-3-3-3-3---2--x-2-2-2-2-2-2---5--x-5-5-5-5-5-5---5--x-5-5-5-5-5-5-|
B|-3--x-3-3-3-3-3-3---3--x-3-3-3-3-3-3---5--x-5-5-5-5-5-5---5--x-5-5-5-5-5-5-|
G|-4--x-4-4-4-4-4-4---4--x-4-4-4-4-4-4---6--x-6-6-6-6-6-6---6--x-6-6-6-6-6-6-|x12
D|-5--x-5-5-5-5-5-5---4--x-4-4-4-4-4-4---7--x-7-7-7-7-7-7---7--x-7-7-7-7-7-7-|
A|-5--x-5-5-5-5-5-5---2--x-2-2-2-2-2-2---7--x-7-7-7-7-7-7---7--x-7-7-7-7-7-7-|
E|-3--x-3-3-3-3-3-3---x--x-x-x-x-x-x-x---5--x-5-5-5-5-5-5---5--x-5-5-5-5-5-5-|

Lyrics :

Oh woah woah woah woah, la la la la la,
Oh woah la la la, la la la la la
Oh woah la la la, la la la la la,

Chains (chains), chains (chains), chains (chains),
We’re linked to each-other with chains (chains),
chains (chains), chains (chains),
Is it coz I’m you, and you’re me, and we’re chains,
Linked to each-other with chains (chains),
chains (chains), chains (chains),

Everywhere oh where oh where oh where oh where oh where oh,
Woah, woah, oh-woah,
Everywhere oh where oh where oh where oh where oh where oh,
Woah, woah, oh-woah,

I looked everywhere, everywhere I found you,
In the shape of thoughts, in an attitude,
In the party crowd, In the march on youth,
I looked everywhere, everywhere I found…

This is romantic,
This is fantastic,
Oh woah la la la, la la la la la,
La la la la la, la la la la la,

Chains (chains), chains (chains), chains (chains),
We’re linked to each-other with chains (chains),
chains (chains), chains (chains),
Well is it coz I’m you, and you’re me, and we’re chains,
Linked to each-other with chains (chains),
chains (chains), chains (chains),

Everywhere oh where oh where oh where oh where oh where oh,
Woah, Woah, oh-woah,
Everywhere oh where oh where oh where oh where oh where oh,
Woah, Woah, oh-woah,

You’re in everyone,
Everyone is you,
In the 123,
In the 452,
In the words you say,
In the words you use,
You’re in everyone,
Everyone is…

This is fantastic,
This is fantastic,
Oh woah la la la, la la la la la,
La la la la la, la la la la la,

Chains (chains), chains (chains), chains (chains),
We’re linked to each-other with chains (chains),
chains (chains), chains (chains),
Well is it coz I’m you, and you’re me, and we’re chains,
Linked to each-other with chains (chains),
chains (chains), chains (chains),

Instrumental (Dee and Sue say random words)

Chains (chains), chains (chains), chains (chains),
We’re linked to each-other with chains (chains),
chains (chains), chains (chains),
Well is it coz I’m you, and you’re me, and we’re chains,
Linked to each-other with chains (chains),
chains (chains), chains (chains),

Love after lover,
Love after lover lover,
Love after lover,
Love after lover lover,
Love after lover,
Love after lover lover,
Love after lover,
Love after lover lover,

Lover to lover, to lover to lover to,
Lover to lover, to lover to lover to,
Lover (chains) to lover (chains) to lover (chains) to lover to,
Lover (chains) to lover (chains) to lover (chains) to lover to,

(You) Chains, (Me) chains, chains,
We’re linked to each-other with chains (chains),
chains (chains), chains (chains)

To play the most songs, including Chains by Robots in Disguise by ukulele, the most crucial basic ukulele chords to learn are C chord, D chord, G chord, and Em chord.
These set you up to play a ton of songs, and each of them is easy to learn.