If you are searching for A Mental Symphony ukulele chords, you have visit to the best place.
You can play versatile instrument A Mental Symphony using ukulele or guitar.
This song by Sirenia can also be played by that instruments.
=

A Mental Symphony chords has rhythm and included in An Elixir for Existence (2004) album.
You can also find other musical genres, including jazz ukulele chords, country music ukulele chords, pop ukulele chords, world music ukulele chords, and rock ukulele chords here.

A Mental Symphony by Sirenia Ukulele Chords

Standard Tuning
x(above note) Palm Mute
d(above note) Down Stroke
u(above note) Up Stroke
p(between notes) Pull Off
h(between notes) Hammer On
/or(Afternote) Slide up. Slide Down

(Intro) (solo part)


e-------------------------------------------------------------|
B-0--7--5p3---3--0000---0--7--5h7---3h5--2--00----------------|
G-------------------------------------------------------------|
D-------------------------------------------------------------|
A-------------------------------------------------------------|
E-------------------------------------------------------------|

(End Intro)


|-------------------------------------------------------------|
|-0--7--5p3---3--0000---0--7--5h7---10p8p7--5--7---3p2--------|
|-------------------------------------------------------------|
|-------------------------------------------------------------|
|-------------------------------------------------------------|
|-------------------------------------------------------------| X2

(let ring)
|—|
|-0-|
|—|
|—|
|—|
|—|

(Intro) (rythm part) (End Intro)


e-------------------------------------------------------------|
B-------------------------------------------------------------|
G--4--------------------------------2-------------------------|
D--4--------------------2-----------2-------------------------|
A--2--------------------2-----------0-------------------------|
E-----------------------0-------------------------------------| X4

(let ring)
|—|
|—|
|-4-|
|-4-|
|-2-|
|—|

(Very Quietly with clean distortion)


|-------------------------------------------------------------|
|--0--7--3p0--0h3---7--0h5-0-7--------------------------------|
|-------------------------------------------------------------|
|-------------------------------------------------------------|
|-------------------------------------------------------------|
|-------------------------------------------------------------| X8

(Small Break)

(Pre Chorus)


|-------------------------------------------------------------|
|-------------------------------------------------------------|
|---xxxxxxxx--------------------------------------------------|
|-4-44444444--------------------------------------------------|
|-4-44444444--------------------------------------------------|
|-2-22222222--------------------------------------------------|

“DAncing through days…”
(Repeat Intro Rythm)


e-------------------------------------------------------------|
B-------------------------------------------------------------|
G--4--------------------------------2-------------------------|
D--4--------------------2-----------2-------------------------|
A--2--------------------2-----------0-------------------------|
E-----------------------0-------------------------------------| X4

(Repeat Intro)


e-------------------------------------------------------------|
B-0--7--5p3---3--0000---0--7--5h7---3h5--2--00----------------|
G-------------------------------------------------------------|
D-------------------------------------------------------------|
A-------------------------------------------------------------|
E-------------------------------------------------------------|
|-------------------------------------------------------------|
|-0--7--5p3---3--0000---0--7--5h7---10p8p7--5--7---3p2--------|
|-------------------------------------------------------------|
|-------------------------------------------------------------|
|-------------------------------------------------------------|
|-------------------------------------------------------------| X2

(let ring)
|—|
|-0-|
|—|
|—|
|—|
|—|


e-------------------------------------------------------------|
B-------------------------------------------------------------|
G--4--------------------------------2-------------------------|
D--4--------------------2-----------2-------------------------|
A--2--------------------2-----------0-------------------------|
E-----------------------0-------------------------------------| X4

(let ring) (End Intro)
|—|
|—|
|-4-|
|-4-|
|-2-|
|—|


|-------------------------------------------------------------|
|-------------------------------------------------------------|
|--x-x-x-x-4------xxxxxxx-------------------------------------|
|--5-5-4-4-4------55555554---4--------------------------------|
|--5-5-4-4-2------55555554-xx4--------------------------------|
|--3-5-2-2-2------33333332-222--------------------------------|

(The next part is basically 2 guitars playing the intro, offset over eachother. It
isn’t 100% correct)
[(End] [G1)]


B1|--0-7-5h7-0-7---5--7-3p2-0-7-5h7-0-5-8p7-5-0-7-5h7-0-7-5h-7-3p2-33352--0-|
B2|--0-7-3p0-0-7---5--7-3p2-0-7-3p2--00-------0-7-3p2-0-7-5p-3-------75352--|

[(End]G2|-4[G2)]-|

Pre Chorus
Chorus


|-------------------------------------------------------------|
|-------------------------------------------------------------|
|-----------4-----44---2-----2---4----------------------------|
|-2-----2---4---x-44---2---x-2---4--55-4----------------------|
|-2---x-2---2---2-22---0---0-0---2--55-4----------------------|
|-0---0-0---------------------------33-2----------------------| X2

(Long Break)


|-------------------------------------------------------------|
|-------------------------------------------------------------|
|-------------------------------------------------------------|
|-55-4--------------------------------------------------------|
|-55-4--------------------------------------------------------|
|-33-2--0000000000000000--------------------------------------|

Chorus
(Let ring)


------------------

That’s it! It should be nearly perfect except for that one part.

To play the this songs, including A Mental Symphony by Sirenia by ukulele, the most crucial basic ukulele chords to learn are C chord, D chord, G chord, and Em chord.
These set you up to play a many of songs, and each of them is easy to master.