If you are looking for Big Fat Mama ukulele chords, you’ve come to the best place.
You can play versatile instrument Big Fat Mama using ukulele or guitar.
This song by Status Quo can also be played by that instruments.
=

Big Fat Mama chords has rhythm and included in Other Songs album.
You can also find another musical genres, including jazz ukulele chords, country music ukulele chords, pop ukulele chords, world music ukulele chords, and rock ukulele chords here.

Big Fat Mama by Status Quo Ukulele Chords


Date: Thu, 2 Apr 1998 00:14:49 +0200 (CEST)
From: Peter Eybert
Subject: TAB: Big Fat Mama by Status Quo

Big Fat Mama

written by Rossi/Parfitt
performed by Status Quo
from “Piledriver”, 1972


-----------------|-----------------|-----------------|
-----------------|-----------------|-----------------|
-----------------|-----------------|-----------------|
-----------------|-----------------|-----------------|
-----------0-6-7-|-0----0----0-6-7-|-0----0----0-6-7-|
-----------------|-----------------|-----------------|
-----------------|-----------------|-----------------|
-----------------|-----------------|-----------------|
-----------------|-----------------|-------------4-5-|
-----------------|-----------------|---------7-5-----|
-0----0----0-6-7-|-0----0----0-6-7-|-0-7-5-0---------|
-----------------|-----------------|-----------------|
-----------------|-----------------|-----------------|
-----------------|-----------------|-----------------|
-------------4-5-|-------------4-5-|-------------4-5-|
---------7-5-----|---------7-5-----|---------7-5-----|
-0-7-5-0---------|-0-7-5-0---------|-0-7-5-0---------|
-----------------|-----------------|-----------------|
-----------------|-----------------|-----------------|
-----------------|-----------------|-/10---------10-|
-------------4-5-|-------------4-5-|-----------------|
---------7-5-----|---------7-5-----|-----------------|
-0-7-5-0---------|-0-7-5-0---------|-----------------|
-----------------|-----------------|-----------------|
-----------------|-----------------|
-----------------|-----------------|
-----------------|-----------------|
-2-2-2-2-2-2-2-2-|-2-2-2-4---2-----|
-0-0-3-3-0-0-3-3-|-0-0-3-5---3-----|
-----------------|-----------------|


Say you need me, say you need me
Tell me that you want my love
Say you will be mine and I am yours
You think that you’re way above me
I’m telling you that I can see
All those things that you might wanna be
I am yours tonight
You be mine tonight

D E A | A C A C A C D C |

You keep telling me you’re not having me
I’m telling you that I can see
All the things that you might wanna be
Say you need me, say you need me
Tell me that you want my love
Say will be mine and I am yours
I am yours tonight
You be mine tonight


-----------------|-----------------|-----------------|-----------------|
-----------------|-----------------|-----------------|-----------------|
-----------------|-----------------|-----------------|-----------------|
-------0-2-0-----|-------0-0h2p0--2|-------0-2-0-----|-------0-0h2p0--2|
-0-2-3-------3-2-|-0-2-3-----------|-0-2-3-------3-2-|-0-2-3-----------|
-----------------|-----------------|-----------------|-----------------|


-----------------|-----------------|-----------------|-----------------|
-----------------|-----------------|-----------------|-----------------|
-----------------|-----------------|-----------------|-----------------|
-2-3-2-0---------|-2-3-2-0---------|-2-3-2-0---------|-----------------|
---------2-3-2-0-|---------2-3-2-0-|---------2-3-2-0-|-2-3-2---0-------|
-----------------|-----------------|-----------------|-------3---------|

(2 times, then:)


-----------------|-----------------|-----------------|-----------------|
-----------------|-----------------|-----------------|-----------------|
-----------------|-----------------|-----------------|-----------------|
-----------------|-----2-----------|-----5-4---------|-5-4-3-----------|
-0-2-3-----------|-0-3-------------|-0-3-------------|-----------------|
-----------------|-----------------|-----------------|-----------------|


-----------------|-----------------|-----------------|-----------------|
-----------------|-----------------|-----------------|-----------------|
-----------------|-----------------|---------2-------|-0---------------|
-2-0-2-----------|-0---0-----------|---------2-------|-2---------------|
-----------------|---3-------------|-2---3---0-------|-0---------------|
-----------------|-----------------|-----------------|-----------------|

Am D G Dm7 A5 A7no3


-----------------|-----------------|-----------------|-----------------|
-----------------|-----------------|-----------------|-----------------|
-----------------|-----------------|-----------------|-----------------|
-2-4-5-4-2-4-5-4-|-2-4-5-4-2-4-5-4-|-2-4-5-4-2-4-5-4-|-2-4-5-4-2-4-5-4-|
-0-0-0-0-0-0-0-0-|-0-0-0-0-0-0-0-0-|-0-0-0-0-0-0-0-0-|-0-0-0-0-0-0-0-0-|
-----------------|-----------------|-----------------|-----------------|


I got a big fat Mama with a big fat boy
Really thinks she’s something else
But I love that woman like fish loves the water
And there is nobody else
I’m gonna tell you woman better do as you’re told
If you don’t, I’m gonna bringing you down
I’ve got a big fat Mama
And there’s no one else around

I said say you need me
Come on and say you need me
I said say you need me


-----------------|----------------|
-----------------|----------------|
-----------------|----------------|
-------------5-4-|3-2-1-0---------|
-------5-4-3-----|--------4-3-2-1-|
-5-4-3-----------|----------------|

Say you need me
Come on and say you need me
I said say you need me

(during Solo:)
|A C D A|

CODA:
|A G | A

Thanks to J.Carlos Palazon for sending these lyrics
Transcribed by Peter Eybert
[–]pjoe@charon.muc.de

To play the most songs, including Big Fat Mama by Status Quo by ukulele, the most important basic ukulele chords to learn are C chord, D chord, G chord, and Em chord.
These set you up to play a a lot of songs, and each of them is easy to learn.

If you are searching for Resurrection ukulele chords, you have come to the best place.
You can play versatile instrument Resurrection using ukulele or guitar.
This song by Status Quo can also be played by that instruments.
=

Resurrection chords has rhythm and included in 1+9+8+2 (1982) album.
You can also find other musical genres, including jazz ukulele chords, country music ukulele chords, pop ukulele chords, world music ukulele chords, and rock ukulele chords here.

Resurrection by Status Quo Ukulele Chords


TAB]
PLAY B LIKE THIS, SHUFFLE: PLAY E LIKE THIS, SHUFFLE: PLAY C# LIKE THIS, SHUFFLE:

e|——— e|——— e|———
B|——— B|——— B|———
G|——— G|-4-4-6-4- G|———
D|-4-4-6-4- D|-2-2-2-2- D|-6-6-8-6-
A|-2-2-2-2- A|——— A|-4-4-4-4-
E|———Etc. E|———Etc. E|———Etc.




[VERSE 1]
Sat by a river, wasting my time
I looked at the water and it gave me a sign
I made connection, my reflection
Was calling me back to rock and roll

[VERSE 2]
It was moving, moving along
I looked a little closer and I thought of a song
And my reaction was satisfaction
Calling me back to rock and roll


Calling, calling me back
I saw it in the water and I’m hitting the track
Nothing to pack, I’m gonna polish my act
I’m gonna play some rock and roll

Calling, calling me back
I saw it in the water and I’m hitting the track
Nothing to pack, I’m gonna polish my act
I’m gonna play some rock and roll

Calling, calling me back
I saw it in the water and I’m hitting the track
Nothing to pack, I’m gonna polish my act
I’m gonna play some rock and roll






[VERSE 3]
I was looking, looking ahead
Staying up instead of falling back into bed
Fuel injected, I’ve been elected
He’s calling me back to rock and roll

[VERSE 4]
“It must be something, something”, he said
That’s changing my mind and adjusting my head
A new direction, a resurrection
Calling me back to rock and roll


Calling, calling me back
I saw it in the water and I’m hitting the track
Nothing to pack, I’m gonna polish my act
I’m gonna play some rock and roll

Calling, calling me back
I saw it in the water and I’m hitting the track
Nothing to pack, I’m polish my act, Lord
I’m gonna play some rock and roll


Calling, calling me back
I saw it in the water and I’m hitting the track
Nothing to pack, I polish my act
Owwwwwwe
I’m gonna play some rock and roll
I’m gonna play some rock and roll

To play the this songs, including Resurrection by Status Quo by ukulele, the most important basic ukulele chords to learn are C chord, D chord, G chord, and Em chord.
These set you up to play a a lot of songs, and each of them is easy to learn.

If you are searching for Rollin’ Home ukulele chords, you already come to the best site.
You can play versatile instrument Rollin’ Home using ukulele or guitar.
This song by Status Quo can also be played by that instruments.
=

Rollin’ Home chords has rhythm and included in Other Songs album.
You can also find other musical style, including jazz ukulele chords, country music ukulele chords, pop ukulele chords, world music ukulele chords, and rock ukulele chords here.

Rollin’ Home by Status Quo Ukulele Chords

Status quo rollin home

Rolling Home.

guitar/keyboard:


E|---------------------------------------------------------------|
B|--7b9-7b9-7-7b9-7-4-----4----------------------4-7-------------|
G|----------------------6---6-4-4-6--------4-4-6------6b8r6-4-4--|
D|----------------------------------6--4-6-----------------------|
A|---------------------------------------------------------------|
E|---------------------------------------------------------------|

verse:
I left my home one day
For the sake of better pay
In a foreign land 12 centurys back in time
Where the sun keeps burning down
On the hole drilled in the ground
And I dream of the girl I left behind

verse:
Well I signed on the dotted line
And I thought in a few years time
I’d be home and we could start a brand new life
But everything went wrong
And I just don’t know how long
They will make me stay to pay for my crime

chorus:
And I wish I was
Rollin’ home, rollin’ home
Home to the place I long to be
Oh, oh, oh, rollin’ home, rollin’ home
There’s someone waiting there for me

guitar/keyboard:


E|------------------------------|
B|--7b9-7b9-7-4-7-7-------------|
G|-------------------6b8r6-4-4--|
D|------------------------------|
A|------------------------------|
E|------------------------------|

verse:
There’s a law that rules this land
That I just didn’t understand
I didn’t know that I was doing wrong
But they don’t see to care
And they all do it when they’re over there
But here your face is justice of their God

chorus:
And I wish I was
Rollin’ home, rollin’ home
Home to the place I long to be
Oh, oh, oh, rollin’ home, rollin home
There’s someone waiting there for me

guitar/keyboard:


E|------------------------------|
B|--7b9-7b9-7-4-7-7-------------|
G|-------------------6b8r6-4-4--|
D|------------------------------|
A|------------------------------|
E|------------------------------|

verse:
All the money that I’ve saved
To pay for better days
Just can’t make up how I miss you so
There’s no consolation prize
Oh, but when I close my eyes
I’m dreamin’ of you in our new home

chorus:

To play the this songs, including Rollin’ Home by Status Quo by ukulele, the most crucial basic ukulele chords to learn are C chord, D chord, G chord, and Em chord.
These set you up to play a ton of songs, and each of them is easy to learn.

If you are looking for Mad About the Boy ukulele chords, you already come to the right site.
You can play versatile instrument Mad About the Boy using ukulele or guitar.
This song by Status Quo can also be played by that instruments.
=

Mad About the Boy chords has rhythm and included in Other Songs album.
You can also get other musical genres, including jazz ukulele chords, country music ukulele chords, pop ukulele chords, world music ukulele chords, and rock ukulele chords here.

Mad About the Boy by Status Quo Ukulele Chords


Blue For You 1976

( Tab from: http://www.guitartabs.cc/tabs/s/status_quo/mad_about_the_boy_tab.html )
Intro

E|-7-7-7-7-7-7-7——————77777777777777—-|
B|-7-7-7-7-7-7-7–9-9-9-9-9-9-9—77777777777777—-|
G|-8-8-8-8-8-8-8–9-9-9-9-9-9-9—88888888888888—-|
D|-7-7-7-7-7-7-7–6-6-6-6-6-6-6—77777777777777-5-4|
A|-9-9-9-9-9-9-9–7-7-7-7-7-7-7—99999999999999-5-4|
E|-7-7-7-7-7-7-7——————77777777777777-3-2|

She never has to worry
And she never has to try
She’s never in a hurry
And I know the reason why
She’s got her Daddie’s
And her fingers in some pies
She makes a double of a trouble with her lies

To play the most songs, including Mad About the Boy by Status Quo by ukulele, the most crucial basic ukulele chords to learn are C chord, D chord, G chord, and Em chord.
These set you up to play a ton of songs, and each of them is easy to master.

If you are searching for Ice in the Sun ukulele chords, you have come to the right site.
You can play versatile instrument Ice in the Sun using ukulele or guitar.
This song by Status Quo can also be played by that instruments.
=

Ice in the Sun chords has rhythm and included in Picturesque Matchstickable Messages From the Status Quo (1968) album.
You can also get other musical style, including jazz ukulele chords, country music ukulele chords, pop ukulele chords, world music ukulele chords, and rock ukulele chords here.

Ice in the Sun by Status Quo Ukulele Chords

Ice in the Sun
Status Quo
PMMFTSS 1968

|Bb| |Bb| |Bb| |Bb| |F

[(F)]I’m not a little boy, I’ve lived alone and loved so many more
But when she touches me I melt away, I’m underneath the floor

[(Bb)]Like ice in the sun I melt away
whenever she comes I melt away
like ice in the sun I melt away

[(F)]I sit down in a chair and read a book as if I couldn’t care
but she is in the room and I must look, I see her everywhere

Like ice in the sun I melt away
whenever she comes I melt away
like ice in the sun I melt away

She opens up her eyes as if to speak
she looks at me and I am weak
her eyes they seem much bigger than before
I cannot think anymore

Like ice in the sun I melt away
whenever she comes I melt away
like ice in the sun I melt away

Like ice in the sun I melt away
whenever she comes I melt away
like ice in the sun I melt away

Like ice in the sun I melt away
whenever she comes I melt away
like ice in the sun …etc

To play the this songs, including Ice in the Sun by Status Quo by ukulele, the most crucial basic ukulele chords to learn are C chord, D chord, G chord, and Em chord.
These set you up to play a a lot of songs, and each of them is easy to learn.

If you are searching for Jam Side Down ukulele chords, you have come to the best place.
You can play versatile instrument Jam Side Down using ukulele or guitar.
This song by Status Quo can also be played by that instruments.
=

Jam Side Down chords has rhythm and included in Heavy Traffic (2002) album.
You can also get other musical style, including jazz ukulele chords, country music ukulele chords, pop ukulele chords, world music ukulele chords, and rock ukulele chords here.

Jam Side Down by Status Quo Ukulele Chords


status quo
Jam Side Down
heavy traffic

Legend


------

h hammer-on
p pull-off
b bend
r bend release
/ slide up
slide down
~ vibrato

intro


E|-------------------|---------------------|-------------------|---------
B|-------------------|---------------------|-------------------|---------
G|-2--1--2---2--1--2-|-2--1--2--4--2--1--2-|-2--1--2---2--1--2-|-2--1--2-
D|-------------------|---------------------|-------------------|---------
A|-------------------|---------------------|-------------------|---------
E|-------------------|---------------------|-------------------|---------

What’s a boy to do when faith is cruel
Keep on keeping on try to bend the rules
I’ll do anything to find a way to your heart
I got a rabbits foot but luck don’t come
Got my fingers crossed and they go numb
I can hold my breath and wish for you
I need a miracle to make it thru

(Chorus)
Life is hard
I need a remedy
For the way I feel
My bread keeps landing Jam Side Down
Say you’ll be there to spread love around

(Main Riff)

I was sweet on you that’s how I felt
Got a butter heart you made it melt
Like a big eyed kid in a candy store
I had a little sugar now I want some more

(Chorus)
Life is hard
I need a remedy
For the way I feel
My bread keeps landing Jam Side Down
Say you’ll be there to spread love around

(Solo)


Chords : D - E - A - D - D - E - A - D
E|-----------------------------------------------------------------------
B|----------------5-----------------------------------------------------
G|--/7--6--4---6------2-------------------9----9-10----------------------
D|-------------------------11-11-11----11---9------9----11~~------------
A|----------------------------------12---------------11------------------
E|-----------------------------------------------------------------------

My bread keeps landing Jam Side Down
Say you’ll be there to spread love around

(Bridge)
You are my destiny
You bring out the best in me..you
You make me feel so lucky

So lucky
D A E Play these as single notes on 6th string
To have you |


|---------|

And I need you Yeah I need you

Repeat chorus and main riff untill the end. You’ll manage

Watch it…..after the instrumental and and a few bars after
that the use a G-chord

Say you’ll be there to spread love around

To play the this songs, including Jam Side Down by Status Quo by ukulele, the most crucial basic ukulele chords to learn are C chord, D chord, G chord, and Em chord.
These set you up to play a ton of songs, and each of them is easy to learn.

If you are searching for Lies ukulele chords, you have come to the best place.
You can play versatile instrument Lies using ukulele or guitar.
This song by Status Quo can also be played by that instruments.
=

Lies chords has rhythm and included in Other Songs album.
You can also get another musical genres, including jazz ukulele chords, country music ukulele chords, pop ukulele chords, world music ukulele chords, and rock ukulele chords here.

Lies by Status Quo Ukulele Chords

Just Supposin’1980
Greg Harper quorockergreg@hotmail.co.uk

OK. I FOUND THIS ONE AND C&P IT. OH WELL. ITS CORRECT ANYWAY.

E|———————————————————————-|
B|-5-5-5-5-5-5———————————————————-|
G|-5-5-5-5-5-5———————————————————-|
D|-5-5-5-5-5-5–3–5———-5——-5——-5——-5——-5——-5-|
A|-3-3-3-3-3-3–3–5———-5——-5——-5——-5——-5——-5-|
E|————–1–3-3–3-3-3-3-3-3-3-3-3-3-3-3-3-3-3-3-3-3-3-3-3-3-3-3-|

I had another drink after another drink

and then I tried to crawl to the door

I had another smoke after another joke

and then I couldn’t take anymore

It didn’t change a thing not any single thing

when someone tried to tell me for sure

I heard another voice that said I wasn’t in a dream

I read a word or two about everything

I never knew the way that it ought to have been

they never told me a thing about it

I never did know a thing about it

(CHORUS)
And the lies in the eyes of a thousand eyes they won’t go away

And the times that I’ve tried are the times that I find they don’t show today

F C F G C F G (see intro riff)
But you make me feel so good

I woke up after four still lying on the floor waiting to be carried away

I woke up once again a little after ten will things be better today

It doesn’t change you see it only changes me

will someone try to tell me I’m sure

I’m gonna hear a voice and know isn’t in a dream

I’m gonna read the lines again and look between

I never knew the way that it ought to have been

they never told me a thing about it

I never did know a thing about it

(CHORUS)

INTRO RIF 5 TIMES

I’m going back to school I’m gonna check the rules and see if I get carried away

I’m going back again I’m gonna try again don’t listen what the people might say

It doesn’t change a thing not any single thing

will someone try to tell me for sure

I’m gonna hear a voice and know isn’t in a dream

I’m gonna read the lines again and look between

I never knew the way that it ought to have been

they never told me a thing about it

I never did know a thing about it

(CHORUS)

I’m gonna hear a voice and know isn’t in a dream

I’m gonna read the lines again and look between

I never knew the way that it ought to have been

they never told me a thing about it

I never did know a thing about it

(Repeat till fade)

And the lies in the eyes of a thousand eyes they won’t go away

And the times that I’ve tried are the times that I find they don’t show today

To play the most songs, including Lies by Status Quo by ukulele, the most important basic ukulele chords to learn are C chord, D chord, G chord, and Em chord.
These set you up to play a many of songs, and each of them is easy to master.

If you are searching for Beginning of the End ukulele chords, you have visit to the right site.
You can play versatile instrument Beginning of the End using ukulele or guitar.
This song by Status Quo can also be played by that instruments.
=

Beginning of the End chords has rhythm and included in In Search of the Fourth Chord (2007) album.
You can also get other musical genres, including jazz ukulele chords, country music ukulele chords, pop ukulele chords, world music ukulele chords, and rock ukulele chords here.

Beginning of the End by Status Quo Ukulele Chords

Search of The Fourth Chord 2007

This song reminds me of ‘Little Dreamer’.
I’ve worked all the lyrics out
so I’ve posted ’em all over the net for you.
I didn’t bother to count the G bends in the intro
so e-mail me if you did!

Q136 (approx.)

The Intro and Chorus has this riff played under it:

E|—————–|
B|—————–|
G|-7-7-7-7-7-7-7-7-|
D|-7-7-7-7-7-7-7-7-|
A|-5-0-0-0-0-0-0-0-|
E|—————–|and so on with variations in pattern

the chord is D, D/A

E|—————–|
B|—————–|
G|—————–|
D|—-2-2—-2-2-2-|
A|—-0-0—-0-0-0-|
E|-3b—–3b——-|etc

^ ^
[1/4] [1/4]
Rossi

E|—————————————|
B|-7b-7b-7b-7b-7b-7b-7b-7b-rb-5-7b-5—–|
G|———————————–5—|
D|————————————-7-|
A|—————————————|
E|—————————————|
E|————————————-|
B|-7b-7b-7b-7b-7b-7b-7b-7b-rb-5-7b—–|
G|———————————5—|
D|———————————–7-|
A|————————————-|
E|————————————-|

Happy days are here again
Its official, from number ten

E|———–|
B|———–|
G|———6-|
D|———7-|
A|———7-|
E|-3-2-3-4-5-|

We’re movin’ in, we’re movin out
All change on the roundabout

Bridge
From beginning to end
I just don’t understand

Solo (Light Strings Help here!)

E|———————–19b-19-18-17——————-|
B|——-8b-8b-rb———————20-20b-rb-b-rb-b~-|
G|-7b-7b————————————————|
D|——————–19——————————–|
A|——————————————————|
E|——————————————————|
E|——————————————————|
B|-20b-20-19-1715——-15—-13—15b-17-17-17-17—–|
G|—————–17p14—-14———————-19b-|
D|——————————————————|
A|——————————————————|
E|——————————————————|
E|———————————————–|
B|-17-17-17-17-17-17—–17-20b-rb-20b-rb-b~rb~–|
G|——————-19b————————-|
D|———————————————–|
A|———————————————–|
E|———————————————–|
E|——————————————–|
B|-20-20-20-19-17—————————–|
G|—————-19-17h18——17—-17~-17~-|
D|————————-lt19—-19———|
A|——————————————–|
E|——————————————–|

(ltleft hand tap)

E|————————————|
B|————————————|
G|————————————|
D|-19p17——19-17——————-|
A|——-lt19——-19-17-15—-15-17-|
E|—————————17——-|

To play the this songs, including Beginning of the End by Status Quo by ukulele, the most important basic ukulele chords to learn are C chord, D chord, G chord, and Em chord.
These set you up to play a ton of songs, and each of them is easy to learn.

If you are looking for Velvet Train ukulele chords, you have come to the right place.
You can play versatile instrument Velvet Train using ukulele or guitar.
This song by Status Quo can also be played by that instruments.
=

Velvet Train chords has rhythm and included in Other Songs album.
You can also find another musical style, including jazz ukulele chords, country music ukulele chords, pop ukulele chords, world music ukulele chords, and rock ukulele chords here.

Velvet Train by Status Quo Ukulele Chords


Status Quo
TPAOY 2005

For ‘MIQNO’ of the SQMB.
Firstly, some explaining must be done.
The intro does not actually consist of chords – just harmonic
intervals, so the naming of the chord is not to be taken literally.
As these intervals only consist of two notes (also known as diads)
the chord is simplified – a lot.
In fact, all the chords should be played as root
and fifths (also known as ‘power chords’).

Chords for intro:

Cb5 x34xxx
C5 x35xxx
B+5 x25xxx
B5 x24xxx
D5 x57xxx

OK, lets go for it…

|Cb5| |C5| |B+5| |B5|

|Cb5| |C5| |B+5| |B5|

|Cb5| |C5| |B+5| |B5|

|Cb5| |C5| |D5| |D5|

ride with me honey on the velvet train
ride with me honey on the velvet train
ride with me honey on the velvet train
ride with me honey on the velvet train

I got me a ticket

packed my case

put my best suit on
and I washed my face

short on spending money

but the champagne’s complimentary

now look this ticket’s for 2 is there a chance that you would

ride with me honey on the velvet train
ride with me honey on the velvet train
ride with me honey on the velvet train
ride with me honey on the velvet train

we be leaving when you’re ready
if you just say yes
rolling down the line
destination happiness

tell me this and tell me no more

are you riding with me I got to know for sure

we can rock and roll and save our souls

so before we get too old

ride with me honey on the velvet train
ride with me honey on the velvet train

Intro chords
Solo chords:

|D| |D| |D| |D|

|D| |D| |D| |D|

|G| |G| |G| |G|

|G| |G| |G| |G|

|G| |G|

ride with me honey on the velvet train
ride with me honey on the velvet train
ride with me honey on the velvet train
ride with me honey on the velvet train

To play the this songs, including Velvet Train by Status Quo by ukulele, the most important basic ukulele chords to learn are C chord, D chord, G chord, and Em chord.
These set you up to play a many of songs, and each of them is easy to learn.

If you are looking for Stay the Night ukulele chords, you already visit to the best site.
You can play versatile instrument Stay the Night using ukulele or guitar.
This song by Status Quo can also be played by that instruments.
=

Stay the Night chords has rhythm and included in Other Songs album.
You can also find another musical style, including jazz ukulele chords, country music ukulele chords, pop ukulele chords, world music ukulele chords, and rock ukulele chords here.

Stay the Night by Status Quo Ukulele Chords

Back To Back 1983

Gtr.2


E|-5-5-5--6--3-3-3-4p3-4p3---5-5-5--6--3-3-3-|
B|-6-6-6--6--4-4-4-4---4-----6-6-6--6--4-4-4-|
G|-5-5-5--5--3-3-3-----------5-5-5--5--3-3-3-|
D|-------------------------------------------|
A|-------------------------------------------|
E|-------------------------------------------|X4

Gtr.1 (Fill Between Riff)


E|-------------|
B|-------------|
G|-----3-3-----|
D|-3h5-----5p3-|
A|-------------|
E|-------------|

( Tab from: http://www.guitartabs.cc/tabs/s/status_quo/stay_the_night_tab.html )
Gtr.1&3


E|-----------|
B|-----------|
G|-----------|
D|-3-3-3-3-3-|
A|-3-3-3-3-3-|
E|-1-1-1-1-1-|

Has anybody here seen my way to heaven
Can anybody care enough for them to tell
It’s taken me forever but finally you came
I had to look no further than any other man

etc

To play the most songs, including Stay the Night by Status Quo by ukulele, the most crucial basic ukulele chords to learn are C chord, D chord, G chord, and Em chord.
These set you up to play a ton of songs, and each of them is easy to learn.