If you are looking for Sweet Dreams ukulele chords, you have come to the right place.
You can play versatile instrument Sweet Dreams using ukulele or guitar.
This song by Stone can also be played by that instruments.
=

Sweet Dreams chords has rhythm and included in No Anaesthesia! (1989) album.
You can also get other musical style, including jazz ukulele chords, country music ukulele chords, pop ukulele chords, world music ukulele chords, and rock ukulele chords here.

Sweet Dreams by Stone Ukulele Chords

STONE : Sweet Dreams
(Janne Joutsenniemi – Roope Latvala)

Transcribed and tabbed by Iiro P
angel-raper@hotmail.com

F I N N I S H T H R A S H / S P E E D M E T A L B A N D!!
S T O N E

(0:00)

Quiet acoustic intro


|-----------------------------|
|-----------------------------|
|---------------------------|
|-----5---5---4-------------|
|--3-----------------4---1-2--|
|-----------------------------|

(0:14)

riff 1:


|--------------------------------|
|--------------------------------|
|--------------------------------|
|---3-----3-0-1-2----2---2-----2-|
|---3-----3-0-1-2----2---2-----2-|
|-0---0-0----------1---1---1-1---|

(0:33)

riff 2:

guitar 1:

guitar 2:


|------------------------------------------------------------------------------------------|
|-7-----------7p5-----7p5-7-----------6--------6-7-8-----------7p5------7p5-6--------------|
|------------------------------------------------------------------------------------------|
|------------------------------------------------------------------------------------------|
|------------------------------------------------------------------------------------------|
|----------0-0---0-0-0--------------------------------------0-0---0-0-0--------------------|

(0:51)


|-------------------|
|-------------------|
|-------------------|
|-3-2---------------|
|-1-0---0-----------|
|---------4-3-2-1---|

(0:53) verse w/ riff 1

(1:12)

guitar 1


|-----------------------------------------------------------------|
|-----------------------------------------------------------------|
|-----------------------------------------------------------------|
|-----4---4h5-4h5-----4h5-4h5-4h5-----4---4h5-4h5-----4---4h5-4h5-|
|-0-0---0---------3-3---------------------------------------------|
|---------------------------------2-2---2---------2-2---2---------|

| |
| guitar 2 |


|-----------------------------------------------------------------|
|-----------------------------------------------------------------|
|-----------------------------------------------------------------|
|-10--------------7-----------------------------------------------|
|---------------------------------4-4-4-4-4-4-4-4-4-4-4-4-4-4-4-4-|
|-8---------------5---------------2-2-2-2-2-2-2-2-2-2-2-2-2-2-2-2-|

guitar 1


|-----------------------------------------------------------------|
|-----------------------------------------------------------------|
|---------------------------------------------------------3-------|
|-----4---4h5-4h5-----4---4h5-4h5-----4---4h5-4h5-----4h5---5-4h5-|
|-0-0---0---------3-3---3-----------------------------------------|
|---------------------------------2-2---2---------2-2---2---------|

| |
| guitar 2 |


|-----------------------------------------------------------------|
|-----------------------------------------------------------------|
|-----------------------------------------------------------------|
|-10--------------7-----------------------------------------------|
|---------------------------------4-4-4-4-4-4-4-4-4-4-4-4-4-4-4-4-|
|-8---------------5---------------2-2-2-2-2-2-2-2-2-2-2-2-2-2-2-2-|

guitar 1


|-----------------------------------------------------------------|
|-----------------------------------------------------------------|
|---------------------------------------------3-------3---3---4h5-|
|-----4---4h5-4h5-----4---4h5-4h5-----4---4h5---5-4h5---5---5-----|
|-0-0---0---------3-3---3-----------------------------------------|
|---------------------------------2-2---2-------------------------|

| |
| guitar 2 |


|-----------------------------------------------------------------|
|-----------------------------------------------------------------|
|---------------------------------------------3-------------------|
|-----4---4h5-4h5-----4---4h5-4h5-----4---4h5---5-----4---4h5-4h5-|
|-0-0---0---------3-3---3-----------------------------------------|
|---------------------------------2-2---2---------2-2---2---------|

guitar 1


|-----------------------------------------------------------------|
|-----------------------------------------------------------------|
|-----4---4h5-4h5-----4h5-4h5-4h5-----4---4h5-4h5-----4---4h5-4h5-|
|-----------------------------------------------------------------|
|-0-0---0---------3-3---3-----------------------------------------|
|---------------------------------2-2---2---------2-2---2---------|

| |
| guitar 2 |


|-----------------------------------------------------------------|
|-----------------------------------------------------------------|
|-----------------------------------------------------------------|
|-----4---4h5-4h5-----4---4h5-4h5-----4---4h5-4h5-----4---4h5-4h5-|
|-0-0---0---------3-3---3-----------------------------------------|
|---------------------------------2-2---2---------2-2---2---------|

(1:31) chorus w/ riff 2

(1:50)

riff 3:

both guitars:


||-----------------------------------------------------------------||
||-----------------------------------------------------------------||
||-----------------------------------------------------------------||
||-----------------------------------------------------------------||
||---------------4---------------6-------------4---------------6-5-||
||-0-5-0-6-0-3-0---0-5-0-6-0-3-0---5-0-6-0-3-0---0-5-0-6-0-3-0-----||

guitar 1


|-----------------------------------------------------------------|
|-----------------------------------------------------------------|
|-----------------------------------------------------------------|
|-----------------------------------------------------------------|
|---------------4---------------6-------------4---------------6-5-|
|-0-5-0-6-0-3-0---0-5-0-6-0-3-0---5-0-6-0-3-0---0-5-0-6-0-3-0-----|

| |
| guitar 2 |


|-----------------------------------------------------------------|
|-----------------------------------------------------------------|
|-----------------------------------------------------------------|
|---------------2---------------4-------------2---------------4-3-|
|---3---4---1-------3---4---1-----3---4---1-------3---4---1-------|
|-0---0---0---0---0---0---0---0-----0---0---0---0---0---0---0-----|

guitar 1


|-----------------------------------------------------------------|
|-----------------------------------------------------------------|
|-----------------------------------------------------------------|
|-----------------------------------------------------------------|
|---------------4---------------6-------------4---------------6-5-|
|-0-5-0-6-0-3-0---0-5-0-6-0-3-0---5-0-6-0-3-0---0-5-0-6-0-3-0-----|

| |
| guitar 2 |


|-----------------------------------------------------------------|
|-----------------------------------------------------------------|
|-----------------------------------------------------------------|
|---------------3---------------5-------------3---------------5-4-|
|---4---5---2-------4---5---2-----4---5---2-------4---5---2-------|
|-0---0---0---0---0---0---0---0-----0---0---0---0---0---0---0-----|

(2:10)

both guitars:


||-----------------------------------------------------------------||
||-----------------------------------------------------------------||
||-----------------------------------------------------------------||
||-----------------------------------------------------------------||
||---------------4-----------------------------6-5-----------------||
||-0-5-0-6-0-3-0---0-0-0-0-0-0-0-0-5-0-6-0-3-0-----0-00000-0-00000-||

(2:29) guitar solo (figure it out yourself 🙂

(2:49)

two guitars:


||-------------------------------------------------------------------------||
||-------------------------------9tr10-------------------------------9-----||
||-----10-9-----10-9-----4-7-----9tr10-----10-9-----10-9---4-7---4-7-9-7---||
||-----10-7-----10-7-----6-9---------------10-7-----10-7---6-9---6-9---9---||
||-0-0------0-0------0-0-----0-0-------0-0------0-0------0-----0-----------||
||-------------------------------------------------------------------------||
||-------------------------------------------------------------------------||
||-------------------------------9tr10-------------------------------9-----||
||-----10-9-----10-9-----4-7-----9tr10-----10-9-----10-9---4-7---4-7-9-7---||
||-----10-7-----10-7-----6-9---------------10-7-----10-7---6-9---6-9---9---||
||-0-0------0-0------------------------0-0------0-0------------------------||
||-------------------0-0-----0-0-------------------------0-----0-----------||

(3:09) guitar solo (again!)

(3:43) verse w/ riff 1

(4:02) chorus w/ riff 2

(4:23) outro w/riff 3

To play the this songs, including Sweet Dreams by Stone by ukulele, the most crucial basic ukulele chords to learn are C chord, D chord, G chord, and Em chord.
These set you up to play a many of songs, and each of them is easy to master.