If you are searching for Fishnet Stockings ukulele chords, you’ve come to the best place.
You can play versatile instrument Fishnet Stockings using ukulele or guitar.
This song by Stray Cats can also be played by that instruments.
=

Fishnet Stockings chords has rhythm and included in Stray Cats (1981) album.
You can also get another musical genres, including jazz ukulele chords, country music ukulele chords, pop ukulele chords, world music ukulele chords, and rock ukulele chords here.

Fishnet Stockings by Stray Cats Ukulele Chords

The Stray Cats “Fishnet Stockings”

You can see me playing along with this on YouTube:
http://www.youtube.com/watch?vSCSZmxOH0D8

Verse 1


|---|---|---|---------|
|---|---|---|---------|
|-0-|-0-|-0-|-0-2-3-4-|
|---|---|---|---------|


|-----2-------2-------------------------------------|---------------|
|-0-4---4-0-4---4-----2-4-----0-1-2-------2-0-------|---------------|
|-----------------0-4-----0-4-------0-2-4-----4-2-0-|-0--0-0-0--0-0-|
|---------------------------------------------------|---------------|

Verse 2


|---|---|---|---------|
|---|---|---|---------|
|-0-|-0-|-0-|-0-2-3-4-|
|---|---|---|---------|


|-----2-------2-------------------------------------|---------------|
|-0-4---4-0-4---4-----2-------0-1-2-------2-0-------|---------------|
|-----------------0-4---4-0-4-------0-2-4-----4-2-0-|-0--0-0-0--0-0-|
|---------------------------------------------------|---------------|

Solo 1


|---------------------------------|---------------------------------|
|-------4-7-4-----------4-5-4-----|---4-7-7---4-5-6-7-----4---------|
|---4-7-------7-4---4-7-------7-6-|-5-------5---------4-7-----4-5-6-|
|-5---------------5---------------|-------------------------5-------|


|---------------------------------|---------------------------------|
|-----------4-5-6-7---------4-5-6-|-7-------7-----4-7-----4-7-5-4---|
|-7-----4-5---------4-5-6-7-------|---4-7-4---4-7-----4-7---------7-|
|---5-7---------------------------|---------------------------------|


|-------------------------2-------|---------------------------------|
|---------------------2-4---4-2---|-2-------2-----------------------|
|-5-3-2-3-5-3-2-1-0-4-----------4-|---5-4-2---5-4-2---4-5-6-7-5-4-2-|
|---------------------------------|-----------------5---------------|

Verse 3


|---|---|---|---------|
|---|---|---|---------|
|-0-|-0-|-0-|-0-2-3-4-|
|---|---|---|---------|

( Tab from: http://www.guitartabs.cc/tabs/s/stray_cats/fishnet_stockings_btab.html )


|-----2-------2-4-2-------0------------------------|---------------|
|-0-4---4-0-4---------2-4---2-0---2-------2-0------|---------------|
|-------------------4-----------4---0-2-4-----4-2-0|-0--0-0-0--0-0-|
|--------------------------------------------------|---------------|

Solo 2


|---------------------------------|-------4-------------------------|
|-----------4-5-6-7-----4-7-5-4---|---4-7-----4-5-6-7-----4---------|
|---4-5-6-7---------4-7---------7-|-5-------5---------4-7-----4-5-6-|
|-5-------------------------------|-------------------------5-------|


|---------------------------------|---------------------------------|
|-----------4-5-6-7---------4-5-6-|-7-----4-------4-------4-------4-|
|-7-----4-5---------4-5-6-7-------|---4-7-----4-7-----4-7-----4-7---|
|---5-7---------------------------|---------5-------5-------5-------|


|-------4-------4-----------------|---------------------------------|
|---4-7-----4-7---------4-5-4-----|-----------4-5-6-7---------4-5-6-|
|-5-------5---------4-7-------5-6-|-7-----4-7---------4-5-6-7-------|
|-----------------5---------------|---5-7---------------------------|


|---------------------------------|-------------------------2-------|
|-7-------------4-7-5-4-5-7-6-5-4-|---------------------2-4---4-2---|
|---4-7-4---4-7-------------------|-5-3-2-3-5-3-2-1-0-4-----------4-|
|---------5-----------------------|---------------------------------|
|---1-4-1-------------------------|
|-2-------2-0---------0-1-2-0-----|
|-------------4-2-0-4---------4-2-|
|---------------------------------|

Verse 4


|---|---|---|---------|
|---|---|---|---------|
|-0-|-0-|-0-|-0-2-3-4-|
|---|---|---|---------|


|-----2-------2-4----------------------------------|---------------|
|-0-4---4-0-4---------2-------2-4-2-------2-0------|---------------|
|-----------------0-4---4-0-4-------0-2-4-----4-2-0|-0--0-----0--0-|
|--------------------------------------------------|---------------|

AdumbPees on YouTube

To play the this songs, including Fishnet Stockings by Stray Cats by ukulele, the most crucial basic ukulele chords to learn are C chord, D chord, G chord, and Em chord.
These set you up to play a many of songs, and each of them is easy to master.

If you are searching for 18 Miles to Memphis ukulele chords, you’ve come to the right site.
You can play versatile instrument 18 Miles to Memphis using ukulele or guitar.
This song by Stray Cats can also be played by that instruments.
=

18 Miles to Memphis chords has rhythm and included in Rant ’n Rave With the Stray Cats (1983) album.
You can also find another musical style, including jazz ukulele chords, country music ukulele chords, pop ukulele chords, world music ukulele chords, and rock ukulele chords here.

18 Miles to Memphis by Stray Cats Ukulele Chords


Song: 18 Miles to Memphis
Band: Stray Cats
Album: Rant ‘n Rave With The Stray Cats

Alright kids. Long time, no tab. Back with another Cats tab
to start off the new year.My doctor said I’m healthy enough
to deal with the stresses of transcribing tabs like this ).
Joke’s aside This was a very rewarding experience since
I think (or, at least I would like to think) that I improved my Travis picking.
I included the bass notes in the song but if they don’t make sense
don’t play them. Or, if you have a better idea on what the bass notes are,
please don’t hesitate to let me know.

The speed of this song, especially the opening riff, is friggin
insane with regards to WHAT he’s playing. Quick pull off riff
followed by some quick travis picking to lead on into the chord
progression. Now, this is a typical I,IV,V progression in the
key of A. He plays the progression differently live than in the recording.
Brian’s got a pedal steel in the background which masks the guitar a little.
Strums are not exact, listed for the changes. Let’s go!!

INTRO:
(OPENING LICK) A E9


e|----------------------------5-5-|----------------------------------|
B|-5po----5p0----5p0----5p0---5-5-|--5p0---5p0----5p0----5p0---7-7---|
G|-5p0----5p0----5p0----5p0---6-6-|--5p0---5p0----5p0----5p0---7-7---|
D|-----7------7------7--------7-7-|------7-----7------7--------6-6---|
A|----------------------------7-7-|----------------------------7-7---|
E|----------------------------5-5-|----------------------------------|

(if the bass notes are hard to follow, ignore and focus on the g,b,e strings)

fingerpick


e|-----5---------------------------|-----------------------------------|
B|------------5----7-----5---------|----------------------5--7-7--7/9--|
G|---------------------------6-----|--6-6--6--66--6-------5--7-7--7/9--|
D|-----7--------7-----7---------7--|--7-7--7--77--7--------------------|
A|---------7---------------7-------|-----------------------------------|
E|--5--------------5---------------|-----------------------------------|

VERSE 1: (You can play the regular chords if you want.)

“We’ve been driving all night long….”


e|-----5------------------------------10-|-5-5--------------------|
B|------------5----7-----5------------10-|--------5---7--5---5----|
G|---------------------------6--------11-|-----------------6------| X2
D|-----7--------7-----7---------7--------|---7------7----7---7----|
A|---------7---------------7-------------|------7----------7------|
E|--5--------------5---------------------|-5----------5-----------|

“We go 500 miles, everyone’s asleep…”


e|-5------------10------|-5-5----------------------|
B|-5------------10------|---------5---7--5-----5---|
G|-6------------11------|-------------------6------| X2
D|----------------------|---7-------7----7-----7---|
A|----------------------|-------7-----------7------|
E|----------------------|-5-----------5------------|

“Oh, 18 wheels a’rollin’. 18 wheels rollin round and round”


e|-12----------------------10---------5-5------------|-1212--11--10--|
B|-12----------------------10--------------5-7-5-----|-1212--11--10--|
G|-13----------------------11---------------------6--|-1313--12--11--|
D|---------------------------------------------------|---------------|
A|---------------------------------------------------|---------------|
E|---------------------------------------------------|---------------|

“Please Mr. Driver won’t you pull over…”


e|-12------------10-----------------|-5-5--------------------|
B|-12------------10-----------------|--------5---7--5---5----|
G|-13------------11-----------------|-----------------6------| X2
D|----------------------------------|---7------7----7---7----|
A|----------------------------------|------7----------7------|
E|----------------------------------|-5----------5-----------|

“We’ll have 14 steak and eggs…..”


e|-10------------------|--17--17---12--14--12----12-----|
B|-10------------------|----------------------14--------|
G|-11------------------|--------------------------------| X2
D|---------------------|--------------------------------|
A|---------------------|--------------------------------|
E|---------------------|--------------------------------|

( Tab from: http://www.guitartabs.cc/tabs/s/stray_cats/18_miles_to_memphis_tab.html )
“Let’s get back on the bus………..”


e|-12----------------------10---------5-5------------|-1212--11--10--|
B|-12----------------------10--------------5-7-5-----|-1212--11--10--|
G|-13----------------------11---------------------6--|-1313--12--11--|
D|---------------------------------------------------|---------------|
A|---------------------------------------------------|---------------|
E|---------------------------------------------------|---------------|

CHORUS
“Yea we’re 18 miles to Memphis…”


e|-------------------------------|
B|-------------------------------|
G|-------------------------------| X4
D|-----------44--77--44----------|
A|----44--77------------77--55---|
E|-55----------------------------|

“Got a rocket in my pocket and I, lit the fuse..”


e|--/10~--/10~----------/5~-/5--|
B|--/10~--/10~----------/5~-/5--|
G|--/11~--/11~----------/6~-/6--|
D|------------------------------|
A|------------------------------|
E|------------------------------|

“Well, we’re 18 miles to Memphis, and I won’t be till I rock you out…”


e|-12----------------------10---------5-5------------|-1212--11--10--|
B|-12----------------------10--------------5-7-5-----|-1212--11--10--|
G|-13----------------------11---------------------6--|-1313--12--11--|
D|---------------------------------------------------|---------------|
A|---------------------------------------------------|---------------|
E|---------------------------------------------------|---------------|

SOLO: “YEE-HAW!””


e|-5-5--8^--5--8^-5-8^-5--------5--|-5--8^--5--8^--5-8^-5-----5-|
B|-5-5--7^--5--7^-5-7^-5------5----|-5--7^--5--7^--5-7^-5----5--|
G|-------------------------7^------|-----------------------7^---|
D|---------------------------------|----------------------------|
A|---------------------------------|----------------------------|
E|---------------------------------|----------------------------|

x2


e|----------------5--|-2/9--2/9--2/9-2/9--|-----7-------------|
B|----------------5--|-1/8--1/8--1/8-1/8--|------7--10p7---10-|
G|-7^-7^--7--5-------|--------------------|-/7----7------7----|
D|--------------7----|--------------------|-------------------|
A|-------------------|--------------------|-------------------|
E|-------------------|--------------------|-------------------|
e|------------------5-2---------2--------------|
B|----------------------5-2---2----------------|
G|-4^p2---2-2~--------------4^-------2---------|
D|------4-------------------------4^-----------|
A|--------------------------------------3^0----|
E|---------------------------------------------|
e|-7^-7^----------7--|-------------------------5-5--|
B|-8^-8^---7------7--|-5p0---5p0---5p0---5p0---5-5--|
G|-----------9p7-----|-5p0---5p0---5p0---5p0---6-6--|
D|-------------------|-----7-----7-----7-------7-7--|
A|-------------------|-------------------------7-7--|
E|-------------------|-------------------------5-5--|

He then plays the A, to the D which leads into…

PEDAL STEEL SECTION


e|-/17-17--12--14--12----------|----------------------12--14/-|-17-17~----|
B|--------------------14-------|--14---14---14---14---12--14/-|-----------|
G|-----------------------14----|-----14---14--14---14---------|-----------|
D|--------------------------X2-|------------------------------|-----------|
A|-----------------------------|------------------------------|-----------|
E|-----------------------------|------------------------------|-----------|


e|-10~----------------|-----------------|-------------------------|
B|-10~--10--12--10----|-10-10~----------|-10-10~------------------|
G|-----------------11-|-11-11~-9--12-9--|-9--9-~--9-11-9----9-9-9-|
D|--------------------|-----------------|----------------12-------|
A|--------------------|-----------------|-------------------------|
E|--------------------|-----------------|-------------------------|


e|-12-12~---1210~-----17--17--12-14-12-------------------------12~-|
B|-12-12~---1210~----------------------14-------12--12~------------|
G|-13-13~---1311~-------------------------14------------13-13------|
D|------------------------------------------------------------------|
A|------------------------------------------------------------------|
E|------------------------------------------------------------------|

Repeat VERSE
Repeat CHORUS:
Repeat OPENING LICK

ENDING LICK:


e|-5-2---------2------------|
B|-----5-2---2--------------|
G|---------4^------2--------|
D|---------------4^---------|
A|-------------------3^0----|
E|--------------------------|

And down goes another Cats tab folks. Let me know what you think.
I’ll try to check my work to hopefully improve the tab. I’ll
be spending some time trying to learn this so I don’t know
when the next tab will be. But if nobody beats me to it, it will
be Machine Gun Blues by Social Distortion. Thanks for all those who
have rated my tab. Have fun!!

| / slide up
| slide down
| h hammer-on
| p pull-off
| ~ vibrato
| + harmonic
| x Mute note
| ^ Bend

To play the this songs, including 18 Miles to Memphis by Stray Cats by ukulele, the most crucial basic ukulele chords to learn are C chord, D chord, G chord, and Em chord.
These set you up to play a many of songs, and each of them is easy to master.

If you are looking for Town Without Pity ukulele chords, you have visit to the best site.
You can play versatile instrument Town Without Pity using ukulele or guitar.
This song by Stray Cats can also be played by that instruments.
=

Town Without Pity chords has rhythm and included in Let’s Go Faster (1990) album.
You can also get other musical genres, including jazz ukulele chords, country music ukulele chords, pop ukulele chords, world music ukulele chords, and rock ukulele chords here.

Town Without Pity by Stray Cats Ukulele Chords



[Bm(7)]When you’re young and so in love as we
And bewildered by the world we see [A/C#]
Why do people hurt us so
Only those in love would know
D/A Aaug C#m7b5 G7 F#7
What a town without pity can do

[Bm(7)]If we stop to gaze upon the stars
People talk about how bad we are [A/C#]
Ours is not an easy age
We’re like tigers in a cage
D/A Aaug G A D Am D7
What a town without pity can do
( Tab from: http://www.guitartabs.cc/tabs/s/stray_cats/town_without_pity_crd.html )
Verse:
The young have problems, many problems
We need an understanding heart
Why don’t they help us, try to help us
Before this clay and granit planet falls apart

Take these eager lips and hold me fast
I’m afraid this kind of joy can’t last [A/C#]
How can we keep love alive
How can anything survive
D/A Aaug C#m7b5 G7 F#7
When these little minds tear you in two
What a town without pity can do
Ooh ooh…

Solo
[Bb/D]
How can we keep love alive
How can anything survive
D#/A# A#aug Dm7b5 G#7 G7
When these little minds tear you in two
What a town without pity can do
No it isn’t very pretty
What a town without pity can do


To play the most songs, including Town Without Pity by Stray Cats by ukulele, the most important basic ukulele chords to learn are C chord, D chord, G chord, and Em chord.
These set you up to play a ton of songs, and each of them is easy to learn.