If you are searching for Never Wake Up ukulele chords, you already come to the right place.
You can play versatile instrument Never Wake Up using ukulele or guitar.
This song by Sum 41 can also be played by that instruments.
=

Never Wake Up chords has rhythm and included in All Killer No Filler (2001) album.
You can also get another musical style, including jazz ukulele chords, country music ukulele chords, pop ukulele chords, world music ukulele chords, and rock ukulele chords here.

Never Wake Up by Sum 41 Ukulele Chords


All Killer No Filler
2001 Aquarius Records
Submitted by: paramore_fans@yahoo.com

Key: B

Tuning: Standard EADGBe

Chords used:
E – [-] 022100
C#m – x46654
D -[-] xx0232
B – x24442

Verse 1:
Jump all you can
And you got out
your right foot
The sooner you get out
In your hide away
I might be left dead
Side of the road
Serves a place and time

Chorus 1:
I plan on never
waking up
(Repeat)

(Repeat Verse)

Chorus 2:
I plan on never
E D E D E(ending)
waking up
(Repeat x4)

To play the this songs, including Never Wake Up by Sum 41 by ukulele, the most important basic ukulele chords to learn are C chord, D chord, G chord, and Em chord.
These set you up to play a many of songs, and each of them is easy to learn.

If you are looking for Happiness Machine ukulele chords, you already come to the best site.
You can play versatile instrument Happiness Machine using ukulele or guitar.
This song by Sum 41 can also be played by that instruments.
=

Happiness Machine chords has rhythm and included in Screaming Bloody Murder (2011) album.
You can also get other musical genres, including jazz ukulele chords, country music ukulele chords, pop ukulele chords, world music ukulele chords, and rock ukulele chords here.

Happiness Machine by Sum 41 Ukulele Chords


-------------------------------------------------------------------------------

HAPPINESS MACHINE – Sum 41


-------------------------------------------------------------------------------

Tabbed by: shenanigan

Tuning: Drop D

Intro

one Guitar repeats: while the other repeats:


e|------------------| e|------------------|
B|------------------| B|------------------|
G|-7777777777777777-| G|------------------| (with some Phaser effect)
D|-xxxxxxxxxxxxxxxx-| D|------------------|
A|-5555555555555555-| A|------------------|
D|------------------| D|-0000000000000000-|

[1+++2+++3+++4+++] [1+++2+++3+++4+++]
this is repeated further on, while a third guitar plays the main riff:


e|-----------------|-----------------|-----------------|-----------------|
B|-----------------|-----------------|-----------------|-----------------|
G|-7---7---7-7-7---|-9---9---9-9-9---|10--10--101010---|-6---6---6-6-6---| x2
D|-x---x---x-x-x---|-x---x---x-x-x---|-x---x---x-x-x---|-x---x---x-x-x---|
A|-5---5---5-5-5---|-7---7---7-7-7---|-8---8---8-8-8---|-4---4---4-4-4---|
D|-----------------|-----------------|-----------------|-----------------|

[+] [+] [+] [+] [+] [+] [+] [+] [+][+][+][+][+][+][+][+]

the intro is ended with this:


e|-----------------|-----------------|
B|-----------------|-----------------|
G|-7-7-----7-7-----|-7-7-----7-7-----|
D|-0-0-----0-0-----|-0-0-----0-0-----|
A|-0-0-----0-0-----|-0-0-----0-0-----|
D|-0-0-----0-0-----|-0-0-----0-0-----|

[+] [+] [+] [+] [+] [+] [+] [+]

Verse

this is repeated throughout the verse:


e|------------------|
B|------------------|

G|-7777777777777777-|
D|-xxxxxxxxxxxxxxxx-|
A|-5555555555555555-|


D|------------------|

[1+++2+++3+++4+++]
the other guitar plays:


e|-----------------|-----------------|-----------------|-----------------|
B|-----------------|-----------------|-----------------|-----------------|
G|-----------------|-----------------|-----------------|-----------------|
D|-----------------|-----------------|-----------------|-----------------| x4
A|-----------------|-----------------|-----------------|-----------------|
D|-00000-----------|-88888-----------|-33333-----------|-77777-------7b-|

[1+++2+++3+++4+++] [1+++2+++3+++4+++] [1+++2+++3+++4+++][1+++2+++3+++4+++]

Take my breath away, I don’t need it anyway

cause I’m fine here in my old forgotten world

where I can be myself, left with the hand I’m dealt

and it’s hard to get a grip when you’re holding onto something you just let slip away

Pre-Chorus

chords are played arpeggiated by an acoustic guitar

All these thoughts stuck in my mind

spinning round like endless


e|------------------|-----------------|-----------------|
B|------------------|-----------------|-----------------|
G|------------------|-----------------|-----------------|
D|-3-----------3///-|-7---7-7-7-7-7-7-|-7---7-7-7-7-7-7-|
A|------------------|-----------------|-----------------|
D|-3-----------3///-|-7---7-7-7-7-7-7-|-7---7-7-7-7-7-7-|

[+] [+] [+] [+] [+] [+] [+] [+][+][+][+][+]
time for once in my mind

Chorus

chords are played by piano and bass

I do wanna feel something you call real

I don’t think that I’ve got time for these scars to heal

And the days just go by leaving questions in my mind

I guess I’ll find the answers some day in another life

guitar plays a lead riff under that (repeated x2):


e|-----------------|------------------|-----------------|-----------------|
B|-----------------|------------------|-----------------|-----------------|
G|-7-7-7-7-7-7-7-7-|-9-9-9-9-10101010-|-3-3-3-3-3-3-3-3-|-5-5-5-5-7-7-7-7-|
D|-x-x-x-x-x-x-x-x-|-x-x-x-x--x-x-x-x-|-x-x-x-x-x-x-x-x-|-x-x-x-x-x-x-x-x-|
A|-5-5-5-5-5-5-5-5-|-7-7-7-7--8-8-8-8-|-1-1-1-1-1-1-1-1-|-3-3-3-3-5-5-5-5-|
D|-----------------|------------------|-----------------|-----------------|
e|-----------------|-----------------|-----------------|-----------------|
B|-----------------|-----------------|-----------------|-----------------|
G|-----------------|-----------------|-----------------|-----------------|
D|-----------------|-----------------|-----------------|-----------------|
A|-----------------|-----------------|-----------------|---------4-4-4-4-|
D|-3-3-3-3-3-3-2-2-|-3-3-3-3-3-3-3-3-|-7-7-7-7-7-7-7-7-|-7-7-7-7---------|

Verse


e|-----------------|-----------------|-----------------|-----------------|
B|-----------------|-----------------|-----------------|-----------------|
G|-----------------|-----------------|-----------------|-----------------|
D|-----------------|-----------------|-----------------|-----------------| x4
A|-----------------|-----------------|-----------------|-----------------|
D|-00000-----------|-88888-----------|-33333-----------|-77777-------7b-|

[1+++2+++3+++4+++] [1+++2+++3+++4+++] [1+++2+++3+++4+++][1+++2+++3+++4+++]

Here with my old friend, the silence in the end

And it rings so loud that I cannot pretend

I just close my eyes and ask a thousand whys

Will it change or stay the same? Will it ever go away?

The question still remains

Pre-Chorus

chords are played arpeggiated by an acoustic guitar

All these thoughts stuck in my mind

spinning round like endless


e|------------------|-----------------|-----------------|
B|------------------|-----------------|-----------------|
G|------------------|-----------------|-----------------|
D|-3-----------3///-|-7---7-7-7-7-7-7-|-7---7-7-7-7-7-7-|
A|------------------|-----------------|-----------------|
D|-3-----------3///-|-7---7-7-7-7-7-7-|-7---7-7-7-7-7-7-|

[+] [+] [+] [+] [+] [+] [+] [+][+][+][+][+]
time for once in my life

Chorus

chords are played by piano and bass

I do wanna feel something you call real

I don’t think that I’ve got time for these scars to heal

And the days just go by leaving questions in my mind

I guess I’ll find the answers some day in another life

guitar plays a lead riff under that (repeated x2):


e|-----------------|------------------|-----------------|-----------------|
B|-----------------|------------------|-----------------|-----------------|
G|-7-7-7-7-7-7-7-7-|-9-9-9-9-10101010-|-3-3-3-3-3-3-3-3-|-5-5-5-5-7-7-7-7-|
D|-x-x-x-x-x-x-x-x-|-x-x-x-x--x-x-x-x-|-x-x-x-x-x-x-x-x-|-x-x-x-x-x-x-x-x-|
A|-5-5-5-5-5-5-5-5-|-7-7-7-7--8-8-8-8-|-1-1-1-1-1-1-1-1-|-3-3-3-3-5-5-5-5-|
D|-----------------|------------------|-----------------|-----------------|
e|-----------------|-----------------|-----------------|-----------------|
B|-----------------|-----------------|-----------------|-----------------|
G|-----------------|-----------------|-----------------|-----------------|
D|-----------------|-----------------|-----------------|-----------------|
A|-----------------|-----------------|-----------------|---------4-4-4-4-|
D|-3-3-3-3-3-3-2-2-|-3-3-3-3-3-3-3-3-|-7-7-7-7-7-7-7-7-|-7-7-7-7---------|

Interlude


e|-----------------|-----------------|-----------------|-----------------|
B|-----------------|-----------------|-----------------|-----------------|
G|-7---7---7-7-7---|-9---9---9-9-9---|10--10--101010---|-6---6---6-6-6---| x2
D|-x---x---x-x-x---|-x---x---x-x-x---|-x---x---x-x-x---|-x---x---x-x-x---|
A|-5---5---5-5-5---|-7---7---7-7-7---|-8---8---8-8-8---|-4---4---4-4-4---|
D|-----------------|-----------------|-----------------|-----------------|

[+] [+] [+] [+] [+] [+] [+] [+] [+][+][+][+][+][+][+][+]

then:


e|-----------------|-----------------|
B|-----------------|-----------------|
G|-7-7-----7-7-----|-7-7-----7-7-----|
D|-0-0-----0-0-----|-0-0-----0-0-----|
A|-0-0-----0-0-----|-0-0-----0-0-----|
D|-0-0-----0-0-----|-0-0-----0-0-----|

[+] [+] [+] [+] [+] [+] [+] [+]

Solo


e|-----------------|---------------------|----------------------------------|
B|-6-------6-------|-8-10------8-10------|-10tr11--8-------10tr11--14------|
G|---7-6-----7-6---|------10-9------10-9-|----------------------------------|
D|-------7-------7-|---------------------|----------------------------------|
A|-----------------|---------------------|----------------------------------|
D|-----------------|---------------------|----------------------------------|

[+] [+] [+] [+] [+] [+] [+] [+]

this is repeated, as a second guitar plays:


e|-----------------|---------------------|----------------------------------|
B|-15------15------|-17--------17--------|-18~~~~~-17~~~~~-18~~~~~-20~~~~~~-|
G|-----------------|---------------------|----------------------------------|
D|-----------------|---------------------|----------------------------------|
A|-----------------|---------------------|----------------------------------|
D|-----------------|---------------------|----------------------------------|

Bridge Verse

difficult to hear because it’s heavily palm muted. let me know if you have a
better idea of what is played here.


e|-----5-------5---|-----5-------5---|
B|---6---6---6---6-|---6---6---6---6-|
G|-7-------7-------|-6-------6-------| x4
D|-----------------|-----------------|
A|-----------------|-----------------|
D|-----------------|-----------------|

then the second guitar comes in:


e|-----5-------5---|-----5-------5---|-----5-------5---|-----5-------5---|
B|---6---6---6---6-|---6---6---6---6-|---6---6---6---6-|---6---6---6---6-|
G|-7-------7-------|-6-------6-------|-7-------7-------|-6-------6-------|
D|-----------------|-----------------|-----------------|-----------------|
A|-----------------|-----------------|-----------------|-----------------|
D|-----------------|-----------------|-----------------|-----------------|

| |


e|-----------------|-----------------|-----------------|-----------------|
B|-----------------|-----------------|-----------------|-----------------|
G|-7---7-7-7-7-7-7-|-9---9-9-9-9-9-9-|10--101010101010-|-9---9-9-9-9-9-9-|
D|-x---x-x-x-x-x-x-|-x---x-x-x-x-x-x-|-x---x-x-x-x-x-x-|-x---x-x-x-x-x-x-|
A|-5---5-5-5-5-5-5-|-7---7-7-7-7-7-7-|-8---8-8-8-8-8-8-|-7---7-7-7-7-7-7-|
E|-----------------|-----------------|-----------------|-----------------|
e|-----5-------5---|-----5-------5---|-----5-------5---|-----------------|
B|---6---6---6---6-|---6---6---6---6-|---6---6---6---6-|-----------------|
G|-7-------7-------|-6-------6-------|-7-------7-------|-6---------------|
D|-----------------|-----------------|-----------------|-----------------|
A|-----------------|-----------------|-----------------|-----------------|
D|-----------------|-----------------|-----------------|-----------------|

| |


e|-----------------|-----------------|-----------------|-----------------|
B|-----------------|-----------------|-----------------|-----------------|
G|-7---7-7-7-7-7-7-|-9---9-9-9-9-9-9-|10--101010101010-|12---------------|
D|-x---x-x-x-x-x-x-|-x---x-x-x-x-x-x-|-x---x-x-x-x-x-x-|-x---------------|
A|-5---5-5-5-5-5-5-|-7---7-7-7-7-7-7-|-8---8-8-8-8-8-8-|10---------------|
E|-----------------|-----------------|-----------------|-----------------|

lyrics:

Warning signs read desolation

On the road of desperation

Happiness machines, I’m coming clean

What can you do for me?

Chorus x2

chords played with electric guitar this time

I do wanna feel something you call real

I don’t think that I’ve got time for these scars to heal

And the days just go by leaving questions in my mind

I guess I’ll find the answers some day in another life

this chords progression is then repeated again

then:


e|-----------------|-----------------|
B|-----------------|-----------------|
G|-7-7-----7-7-----|-7-7-----7-7-----|
D|-0-0-----0-0-----|-0-0-----0-0-----|
A|-0-0-----0-0-----|-0-0-----0-0-----|
D|-0-0-----0-0-----|-0-0-----0-0-----|

[+] [+] [+] [+] [+] [+] [+] [+]

Outro:

chords played by piano only

So here now I stand at the end

Of a dark road out of hell

It’s not so hard as I depart

What a way to become a man

that’s it. hope you enjoyed. if you have any questions or corrections, feel free to comment!

To play the most songs, including Happiness Machine by Sum 41 by ukulele, the most important basic ukulele chords to learn are C chord, D chord, G chord, and Em chord.
These set you up to play a ton of songs, and each of them is easy to master.

If you are looking for I’m Not the One ukulele chords, you have come to the right place.
You can play versatile instrument I’m Not the One using ukulele or guitar.
This song by Sum 41 can also be played by that instruments.
=

I’m Not the One chords has rhythm and included in Chuck (2004) album.
You can also get another musical genres, including jazz ukulele chords, country music ukulele chords, pop ukulele chords, world music ukulele chords, and rock ukulele chords here.

I’m Not the One by Sum 41 Ukulele Chords


I’m Not The One
Chuck
2004 Aquarius Records
Submitted by: paramore_fans@yahoo.com

Key: E

Tuning: Standard

Chords used:
C#m – x46654
A – x02220
B – x24442
E – [-] 022100
D – xx0232

Intro:


Deryck: C#m--A--B--F#m x16

Dave: Will enter at 3rd time up to 8th
H. Q Q H Q Q H Q


E||--------------------|--4----0-------------|-------0-------------|
B||---------------2----|----------------2----|--L-------------2----|
G||--------------------|---------------------|---------------------|
D||--------------------|---------------------|---------------------|
A||--------------------|---------------------|---------------------|
E||--------------------|---------------------|---------------------|

Q H Q Q H Q Q H Q


--4----0-------------|-------0-------------|--4----0--------4----|
----------------2----|--L-------------2----|---------------------|
---------------------|---------------------|---------------------|
---------------------|---------------------|---------------------|
---------------------|---------------------|---------------------|
---------------------|---------------------|---------------------|

H Q Q Q H Q H H


--0--------0---------|--4----0--------0----|--0-----------------|
----------------2----|---------------------|--------------------|
---------------------|---------------------|--------------------|
---------------------|---------------------|--------------------|
---------------------|---------------------|--------------------|
---------------------|---------------------|--------------------|

Q H Q H Q Q Q H Q


--4----0--------4----|--0--------0---------|-------2-------------|
---------------------|----------------2----|--4-------------2----|
---------------------|---------------------|---------------------|
---------------------|---------------------|---------------------|
---------------------|---------------------|---------------------|
---------------------|---------------------|---------------------|

Q H Q Q H Q H Q Q


-------2--------0----|--4----0--------4----|--0--------0---------|
--L------------------|---------------------|----------------2----|
---------------------|---------------------|---------------------|
---------------------|---------------------|---------------------|
---------------------|---------------------|---------------------|
---------------------|---------------------|---------------------|

Q H Q Q H Q Q H Q


-------2-------------|-------2--------0----|--4----0--------4----|
--4-------------2----|--L------------------|---------------------|
---------------------|---------------------|---------------------|
---------------------|---------------------|---------------------|
---------------------|---------------------|---------------------|
---------------------|---------------------|---------------------|

H Q Q Q H Q Q H Q


--0--------0---------|-------2-------------|-------2--------0----|
----------------2----|--4-------------2----|--L------------------|
---------------------|---------------------|---------------------|
---------------------|---------------------|---------------------|
---------------------|---------------------|---------------------|
---------------------|---------------------|---------------------|

Q H Q H Q Q Q H Q


--4----0--------4----|--0--------0---------|-------2-------------|
---------------------|----------------2----|--4-------------2----|
---------------------|---------------------|---------------------|
---------------------|---------------------|---------------------|
---------------------|---------------------|---------------------|
---------------------|---------------------|---------------------|

Q H S S E


-------2--------L---4--||
--L-----------------5--||
--------------------6--||
-----------------------||
-----------------------||
-----------------------||

Verse 1:
Welcome to obsession
It makes the
world go round
We’re made up by
the people we surround
So We live and die
for shit we don’t need
Well maybe it’s
the price of envy
With these eyes I
look out for me
But everyone fades
away who don’t see
Nothing’s gonna change
Why We’re going
down in flames So
I’m not the one

Chorus:
Don’t wait for me
Cause I won’t
just sit by
While you just bleed
Myself and others dry
Don’t wait for me
To be there in the end
When you don’t see
The truth you
just pretend
Don’t wait for me

Dave: Chorus


E||--0--0--0--0--------------|--0--0--0--0--2--2--2--2--|
B||--------------4--4--4--4--|--------------------------|
G||--------------------------|--------------------------|
D||--2--2--2--2--------------|--2--2--2--2--4--4--4--4--|
A||--------------6--6--6--6--|--------------------------|
E||--------------------------|--------------------------|


--0--0--0--0--------------|--0--0--0--0--2--2--2--2--|
--------------4--4--4--4--|--------------------------|
--------------------------|--------------------------|
--2--2--2--2--------------|--2--2--2--2--4--4--4--4--|
--------------6--6--6--6--|--------------------------|
--------------------------|--------------------------|


--4--4--4--4--2--2--2--2--|--0--0--0--0--------------|
--------------------------|--------------4--4--4--4--|
--------------------------|--------------------------|
--6--6--6--6--4--4--4--4--|--2--2--2--2--------------|
--------------------------|--------------6--6--6--6--|
--------------------------|--------------------------|


--0--0--0--0--------------|--------------------------|
--------------4--4--4--4--|--------------0--0--0--0--|
--------------------------|--6--6--6--6--------------|
--2--2--2--2--------------|--------------------------|
--------------6--6--6--6--|--4--4--4--4--2--2--2--2--|
--------------------------|--------------------------|


--0--0--0--0--------------|--0--0--0--0--2--2--2--2--|
--------------4--4--4--4--|--------------------------|
--------------------------|--------------------------|
--2--2--2--2--------------|--2--2--2--2--4--4--4--4--|
--------------6--6--6--6--|--------------------------|
--------------------------|--------------------------|


--0--0--0--0--------------|--0--0--0--0--2--2--2--2--|
--------------4--4--4--4--|--------------------------|
--------------------------|--------------------------|
--2--2--2--2--------------|--2--2--2--2--4--4--4--4--|
--------------6--6--6--6--|--------------------------|
--------------------------|--------------------------|


--4--4--4--4--2--2--2--2--|--0--0--0--0--------------|
--------------------------|--------------4--4--4--4--|
--------------------------|--------------------------|
--6--6--6--6--4--4--4--4--|--2--2--2--2--------------|
--------------------------|--------------6--6--6--6--|
--------------------------|--------------------------|


--0--0--0--0--------------|--------------------------||
--------------4--4--4--4--|--------------0--0--0--0--||
--------------------------|--6--6--6--6--------------||
--2--2--2--2--------------|--------------------------||
--------------6--6--6--6--|--4--4--4--4--2--2--2--2--||
--------------------------|--------------------------||

Verse 2:
What is the solution
We already know
There’s no telling
how far this could go
No You’re near your time
but you just don?t see
Cause you?re just
Part of this game
There’s nothing you
can do to save yourself
You leave your life in
the hands of someone else
You’ll never let it go
Why It’s the only
way you know Know
I’m not the one

(Repeat Chorus)

Bridge:
C#m x2 A B
When did we begin
C#m x2 A B
To let ourselves give in
C#m x2 A B
How’d it come to this
C#m x2 A B C#m—D x8
Miserable bliss

Dave: while doing Bliss


E||---------------------------|--------------------------|
B||---------------------------|--------------------------|
G||---------------------------|--2--------1-----------1--|
D||---------6--------4--------|--------------------4-----|
A||--/4--4-----4--4-----4--4--|-----4--4-----4--4--------|
E||---------------------------|--------------------------|

E E E E E E E E E E E E E E Q E E E E E E E E


--------------------------|-------------------------|--------------------------|
--------------------------|-------------------------|--------------------------|
--------1-----------------|--2--1-----1-------------|--------1-----------------|
-----------------4--------|--------4-----4--2--4----|-----------------4--------|
--4--4-----4--4-----4--4--|-------------------------|--4--4-----4--4-----4--4--|
--------------------------|-------------------------|--------------------------|

E E E E E E E E E E E E E E E E E E E E E E Q


--------------------------|--------------------------|-------------------------|
--------------------------|--------------------------|-------------------------|
--2--------1-----------1--|--------1-----------------|--2--1-----1-------------|
--------------------4-----|-----------------4--------|--------4-----4--2--4----|
-----4--4-----4--4--------|--4--4-----4--4-----4--4--|-------------------------|
--------------------------|--------------------------|-------------------------|


--------------------------|--------------------------|
--------------------------|--------------------------|
--------1-----------------|--2--------1-----------1--|
-----------------4--------|--------------------4-----|
--4--4-----4--4-----4--4--|-----4--4-----4--4--------|
--------------------------|--------------------------|

E E E E E E E E E E E E E E Q E E E E E E E E


--------------------------|-------------------------|--------------------------|
--------------------------|-------------------------|--------------------------|
--------1-----------------|--4--2--1--2--1-----1----|--------1-----------------|
-----------------4--------|-----------------4-------|-----------------4--------|
--4--4-----4--4-----4--4--|-------------------------|--4--4-----4--4-----4--4--|
--------------------------|-------------------------|--------------------------|

E E E E E E E E E E E E E E E E E E E E E E Q


--------------------------|--------------------------|-------------------------|
--------------------------|--------------------------|-------------------------|
--2--------1-----------1--|--------1-----------------|--4--2--1--2--1-----1----|
--------------------4-----|-----------------4--------|-----------------4-------|
-----4--4-----4--4--------|--4--4-----4--4-----4--4--|-------------------------|
--------------------------|--------------------------|-------------------------|

Q E E Q E E Q E E E E Q Q E E Q E E


------------------------|------------------------|------------------------|
------------------------|-------------0--0--0----|------------------------|
------------------------|------------------------|------------------------|
--2----2--4--2----2--4--|--2----2--4--2----------|--2----2--4--2----2--4--|
------------------------|------------------------|------------------------|
------------------------|------------------------|------------------------|

Q E E E E Q Q E E Q E E Q E E E E Q


------------------------|------------------------|------------------------|
-------------0--0--0----|------------------------|-------------0--0--0----|
------------------------|------------------------|------------------------|
--2----2--4--2----------|--2----2--4--2----2--4--|--2----2--4--2----------|
------------------------|------------------------|------------------------|
------------------------|------------------------|------------------------|

Q E E Q E E Q E E E E Q W


------------------------|------------------------|-------------------|
------------------------|------------------------|-------------------|
------------------------|-------------1--1--1----|-------------------|
--2----2--4--2----2--4--|--2----2--4--2----------|-------------------|
------------------------|------------------------|-------------------|
------------------------|------------------------|-------------------|

Q Q H


------------7--------||
----------------------||
----------------------||
----------------------||
----------------------||
----------------------||

Verse 3:
Just take the rest of
Just take the best of me
Just take the rest of
Just take the best of me

Deryck Screams:
Just take the best of me!!!
Just take the best of me!!!
Just take the best of me!!!
Just take the best!!!

(Repeat Chorus)

Outro: C#m x4, D(hold)

To play the this songs, including I’m Not the One by Sum 41 by ukulele, the most important basic ukulele chords to learn are C chord, D chord, G chord, and Em chord.
These set you up to play a many of songs, and each of them is easy to master.

If you are looking for We’re All to Blame ukulele chords, you already visit to the best site.
You can play versatile instrument We’re All to Blame using ukulele or guitar.
This song by Sum 41 can also be played by that instruments.
=

We’re All to Blame chords has rhythm and included in Chuck (2004) album.
You can also find another musical genres, including jazz ukulele chords, country music ukulele chords, pop ukulele chords, world music ukulele chords, and rock ukulele chords here.

We’re All to Blame by Sum 41 Ukulele Chords

#
#Artist: Sum 41
#Song: We’re All To Blame
#Album: Chuck (out: 10/12/04)
#Date: 9/24/04
#Tabbed: stke22 (email: killerewok22@hotmail.com)
#
#Deryck: Up Half-Step (E# A# D# G# B# E#)
#Dave: Drop-D Up Half-Step (D# A# D# G# B# E#)
#Key of D# minor (B major)
#Tempo ~ 165
#
#. palm mute (below note(s))
#. staccato (on top of note(s))
#~ hold note(s)
#
#Notes: If you’re lazy, you can just drop-D it and put a capo on and everything you play is up half a step.
# Missing a melody for the 3rd Chorus.
#
#Updates:
#
#9/26/04 – Changed some lyrics, added comments, tuning alternatives, some chords.
#
#9/27/04 – More things! Gotta watch the video carefully now, eh?
#
#
#
#Intro (0:03):
#Both Guitars:


E#|--------------------------------|--------------------------------|
B#|--------------------------------|--------------------------------|
G#|7---7-7-7---7-7-7---7-7-8---7---|7---7-7-7---7-7-7---7-7-8---7---|
D#|x---x-x-x---x-x-x---x-x-x---x---|x---x-x-x---x-x-x---x-x-x---x---|
A#|5---5-5-5---5-5-5---5-5-6---5---|5---5-5-5---5-5-5---5-5-6---5---|
D#|--------------------------------|--------------------------------|

1 e & a 2 e & a 3 e & a 4 e & a 1 e & a 2 e & a 3 e & a 4 e & a


E#|--------------------------------|--------------------------------|
B#|--------------------------------|--------------------------------|
G#|7---7-7-7---7-7-7---7-7-8---7---|3----2----3----5-----2----3-----|
D#|x---x-x-x---x-x-x---x-x-x---x---|3----2----3----5-----2----3-----| A#|5---5-5-5---5-5-5---5-5-6---5---|1----0----1----3-----0----1-----|
D#|--------------------------------|--------------------------------|

1 e & a 2 e & a 3 e & a 4 e & a 1 e a 3 e a
Second Guitar does random slide

(0:09):


E#|--------------------------------|--------------------------------|
B#|--------------------------------|--------------------------------|
G#|------------------------10------|------------------------10------|
D#|0-0-0-0-0-0-0-0-0-------x-------|0-0-0-0-0-0-0-0-0-------x-------|
A#|0-0-0-0-0-0-0-0-0-------8-------|0-0-0-0-0-0-0-0-0-------8-------|
D#|0-0-0-0-0-0-0-0-0---------------|0-0-0-0-0-0-0-0-0---------------|

1 e & a 2 e & a 3 e & a 4 e & a 1 e & a 2 e & a 3 e & a 4 e & a
. . . . . . . . . . . . . . . . . .


E#|--------------------------------|--------------------------------|
B#|--------------------------------|--------------------------------|
G#|------------------------10------|3----2----3----5-----2----3-----|
D#|0-0-0-0-0-0-0-0-0-------x-------|3----2----3----5-----2----3-----|
A#|0-0-0-0-0-0-0-0-0-------8-------|1----0----1----3-----0----1-----|
D#|0-0-0-0-0-0-0-0-0---------------|--------------------------------|

1 e & a 2 e & a 3 e & a 4 e & a 1 e a 3 e a
. . . . . . . . .


E#|--------------------------------|--------------------------------|
B#|--------------------------------|--------------------------------|
G#|--------------------------------|.-------.-------.-------.-------|
D#|3----2----3----5-----2----3-----|0-------0-------0-------0-------|
A#|1----0----1----3-----0----1-----|0-------0-------0-------0-------|
D#|--------------------------------|0-------0-------0-------0-------|

1 e a 3 e a 1 e & a 2 e & a 3 e & a 4 e & a
. . . . . .

1st Verse (0:18):
I’m not sure if Deryck does the heavy part, but he doesn’t do the octaves.


E#|--------------------------------|--------------------------------|
B#|--------------------------------|--------------------------------|
G#|7-7-7-7-7-7-7-7-7-7-7-7-2-2-2-2-|5-5-5-5-5-5-5-5-3-3-3-3-3-3-3-3-|
D#|x-x-x-x-x-x-x-x-x-x-x-x-x-x-x-x-|x-x-x-x-x-x-x-x-x-x-x-x-x-x-x-x-|
A#|5-5-5-5-5-5-5-5-5-5-5-5-0-0-0-0-|3-3-3-3-3-3-3-3-1-1-1-1-1-1-1-1-|
D#|--------------------------------|--------------------------------|

1 e & a 2 e & a 3 e & a 4 e & a 1 e & a 2 e & a 3 e & a 4 e & a


E#|--------------------------------|--------------------------------|
B#|--------------------------------|--------------------------------|
G#|--------------------------------|--------------------------------|
D#|0-----0-3---0---0-----0-2---0---|0-----0-1---0---0---1---0---1---|
A#|0-----0-3---0---0-----0-2---0---|0-----0-1---0---0---1---0---1---|
D#|0-----0-3---0---0-----0-2---0---|0-----0-1---0---0---1---0---1---|

1 e & a 2 e & a 3 e & a 4 e & a 1 e & a 2 e & a 3 e & a 4 e & a
. . . . . . . . . . . . . .


E#|--------------------------------|--------------------------------|
B#|--------------------------------|--------------------------------|
G#|7-7-7-7-7-7-7-7-7-7-7-7-2-2-2-2-|3-3-3-3-3-3-3-3-5-5-5-5-5-5-5-5-|
D#|x-x-x-x-x-x-x-x-x-x-x-x-x-x-x-x-|x-x-x-x-x-x-x-x-x-x-x-x-x-x-x-x-|
A#|5-5-5-5-5-5-5-5-5-5-5-5-0-0-0-0-|1-1-1-1-1-1-1-1-3-3-3-3-3-3-3-3-|
D#|--------------------------------|--------------------------------|

1 e & a 2 e & a 3 e & a 4 e & a 1 e & a 2 e & a 3 e & a 4 e & a


E#|--------------------------------|--------------------------------|
B#|--------------------------------|--------------------------------|
G#|--------------------------------|--------------------------------|
D#|0-----0-3---0---0-----0-2---0---|0-----0-1---0---0---1---0---1---|
A#|0-----0-3---0---0-----0-2---0---|0-----0-1---0---0---1---0---1---|
D#|0-----0-3---0---0-----0-2---0---|0-----0-1---0---0---1---0---1---|

1 e & a 2 e & a 3 e & a 4 e & a 1 e & a 2 e & a 3 e & a 4 e & a
. . . . . . . . . . . . . .

(0:30):
Deryck overdubs (?):


E#|--------------------------------|--------------------------------|
B#|--------------------------------|--------------------------------|
G#|7-7-7-7-7-7-1010101010109-9-9-9-|9-9-5-5-5-5-5-5-9-9-9-9-9-9-9-9-|
D#|x-x-x-x-x-x-x-x-x-x-x-x-x-x-x-x-|x-x-x-x-x-x-x-x-x-x-x-x-x-x-x-x-| A#|5-5-5-5-5-5-8-8-8-8-8-8-7-7-7-7-|7-7-3-3-3-3-3-3-7-7-7-7-7-7-7-7-|
D#|--------------------------------|--------------------------------|

1 e & a 2 e & a 3 e & a 4 e & a 1 e & a 2 e & a 3 e & a 4 e & a


E#|--------------------------------|--------------------------------|
B#|--------------------------------|--------------------------------|
G#|--------------------------------|--------------------------------|
D#|0-----0-3---0---0-----0-2---0---|0-----0-1---0---0---1---0---1---|
A#|0-----0-3---0---0-----0-2---0---|0-----0-1---0---0---1---0---1---|
D#|0-----0-3---0---0-----0-2---0---|0-----0-1---0---0---1---0---1---|

1 e & a 2 e & a 3 e & a 4 e & a 1 e & a 2 e & a 3 e & a 4 e & a
. . . . . . . . . . . . . .


E#|--------------------------------|--------------------------------|
B#|--------------------------------|--------------------------------|
G#|7-7-7-7-7-7-1010101010105-5-5-5-|12121212121212121010101010101010|
D#|x-x-x-x-x-x-x-x-x-x-x-x-x-x-x-x-|x-x-x-x-x-x-x-x-x-x-x-x-x-x-x-x-| A#|5-5-5-5-5-5-8-8-8-8-8-8-3-3-3-3-|10101010101010108-8-8-8-8-8-8-8-|
D#|--------------------------------|--------------------------------|

1 e & a 2 e & a 3 e & a 4 e & a 1 e & a 2 e & a 3 e & a 4 e & a


E#|--------------------------------|--------------------------------|
B#|--------------------------------|--------------------------------|
G#|--------------------------------|3----2----3----5-----2----3-----|
D#|0-----0-3---0---0-----0-2---0---|3----2----3----5-----2----3-----|
A#|0-----0-3---0---0-----0-2---0---|1----0----1----3-----0----1-----|
D#|0-----0-3---0---0-----0-2---0---|--------------------------------|

1 e & a 2 e & a 3 e & a 4 e & a 1 e a 3 e a
. . . . . . . .

1st Chorus (0:42):
Deryck chords, Dave melody:


E#|--------------------------------|--------------------------------|
B#|--------------------------------|--------------------------------|
G#|--------------------------------|--------------------------------|
D#|5~------------------------------|(5)-----------------------------|
A#|5~------------------------------|(5)-----------------------------|
D#|5~------------------------------|(5)-----------------------------|

Clean Guitar w/ Tremolo effect


E#|3~------------------------------|--------------------------------|
B#|3~------------------------------|4~------------------------------|
G#|0~------------------------------|5~------------------------------|
D#|0~------------------------------|5~------------------------------|
A#|x-------------------------------|3~------------------------------|
E#|3~------------------------------|--------------------------------|

1 e & a 2 e & a 3 e & a 4 e & a 1 e & a 2 e & a 3 e & a 4 e & a


E#|1~------------------------------|1~------------------------------|
B#|1~------------------------------|3~------------------------------|
G#|2~------------------------------|2~------------------------------|
D#|3~------------------------------|0~------------------------------|
A#|3~------------------------------|--------------------------------|
E#|1~------------------------------|--------------------------------|

1 e & a 2 e & a 3 e & a 4 e & a 1 e & a 2 e & a 3 e & a 4 e & a

(0:48):
Not sure about the C# chord here…
[C#5add9]


E#|3---3---3---3---3---3---3---3---|1---1---1---1---1---1---1---1---|
B#|3---3---3---3---3---3---3---3---|1---1---1---1---3---3---3---3---|
G#|0---0---0---0---0---0---0---0---|2---2---2---2---2---2---2---2---|
D#|0---0---0---0---x---x---x---x---|3---3---3---3---0---0---0---0---|
A#|x---x---x---x---3---3---3---3---|3---3---3---3-------------------|
E#|3---3---3---3-------------------|1---1---1---1-------------------|

1 e & a 2 e & a 3 e & a 4 e & a 1 e & a 2 e & a 3 e & a 4 e & a |Play three times.
G#m C#madd9 F#5 D#m |End on D#m let ring one measure.


E#|--------------------------------|--------------------------------| /
B#|8~------------------------------|--------6~--------------6~------| /
G#|----7~------7~------7~--8~--7~--|----5~------5~--7~--------------| /
D#|--------8~------5~--------------|3~------------------7~------7~--| /
A#|--------------------------------|--------------------------------| /
D#|--------------------------------|--------------------------------|/

1 e & a 2 e & a 3 e & a 4 e & a 1 e & a 2 e & a 3 e & a 4 e & a

(1:06):


E#|(1)-----------------------------|--------------------------------|
B#|(3)-----------------------------|--------------------------------|
G#|(2)-----------------------------|3----2----3----5-----2----3-----|
D#|(0)-----------------random------|3----2----3----5-----2----3-----|
A#|--------------------slide-------|1----0----1----3-----0----1-----|
D#|--------------------------------|--------------------------------|

1 e & a 2 e & a 3 e & a 4 e & a 1 e a 3 e a


E#|--------------------------------|
B#|--------------------------------|
G#|.-------.-------.-------.-------|
D#|0-------0-------0-------0-------|
A#|0-------0-------0-------0-------|
D#|0-------0-------0-------0-------|

1 e & a 2 e & a 3 e & a 4 e & a

2nd Verse (1:11):

Repeat 1st Verse.

2nd Chorus (1:34):

Repeat 1st Chorus. Stop at “1:06” and play the below instead (1:59).

Bridge (1:59):
Second guitar sounds like a piano:


E#|3---3---3---3-------------------|----------------1---1---1---1---|
B#|3---3---3---3---3---3---3---3---|3---3---3---3---1---1---1---1---|
G#|0---0---0---0---2---2---2---2---|3---3---3---3---2---2---2---2---|
D#|0---0---0---0---1---1---1---1---|3---3---3---3---3---3---3---3---|
A#|x---x---x---x---1---1---1---1---|1---1---1---1---3---3---3---3---|
E#|3---3---3---3-------------------|----------------1---1---1---1---|

1 e & a 2 e & a 3 e & a 4 e & a 1 e & a 2 e & a 3 e & a 4 e & a
[Esusb2b5]


E#|--------------------------------|--------------------------------|
B#|8~--8~--8~--8~--10~-10~-10~-10~-|11~-11~-11~-11~-6~--6~--6~--6~--|
G#|7~--7~--7~--7~--9~--9~--9~--9~--|10~-10~-10~-10~-5~--5~--5~--5~--| D#|--------------------------------|--------------------------------|
A#|--------------------------------|--------------------------------|
D#|--------------------------------|--------------------------------|

1 e & a 2 e & a 3 e & a 4 e & a 1 e & a 2 e & a 3 e & a 4 e & a


E#|3---3---3---3-------------------|----------------1~--------------|
B#|3---3---3---3---3---3---3---3---|3---3---3---3---1~--------------|
G#|0---0---0---0---2---2---2---2---|3---3---3---3---2~--------------|
D#|0---0---0---0---1---1---1---1---|3---3---3---3---3~--------------|
A#|x---x---x---x---1---1---1---1---|1---1---1---1---3~--------------|
E#|3---3---3---3-------------------|----------------1~--------------|

1 e & a 2 e & a 3 e & a 4 e & a 1 e & a 2 e & a 3 e & a 4 e & a
[Esusb2b5]


E#|--------------------------------|--------------------------------|
B#|8~--8~--8~--8~--10~-10~-10~-10~-|11~-11~-11~-11~-6~--------------|
G#|7~--7~--7~--7~--9~--9~--9~--9~--|10~-10~-10~-10~-5~--------------|
D#|--------------------------------|--------------------------------|
A#|--------------------------------|--------------------------------|
D#|--------------------------------|--------------------------------|

1 e & a 2 e & a 3 e & a 4 e & a 1 e & a 2 e & a 3 e & a 4 e & a


E#|(1)-----------------------------|(1)-----------------------------|
B#|(1)-----------------------------|(1)-----------------------------|
G#|(2)-----------------------------|(2)-----------------------------|
D#|(3)-----------------------------|(3)-------------------------3---|
A#|(3)-----------------------------|(3)-------------------------3---|
D#|(1)-----------------------------|(1)-------------------------3---|

1 e & a 2 e & a 3 e & a 4 e & a 1 e & a 2 e & a 3 e & a 4 e & a

3rd Verse (2:13):


E#|--------------------------------|--------------------------------|
B#|--------------------------------|--------------------------------|
G#|--------------------------------|----------------------------8---|
D#|0-----------3---0-----------2---|0-----------2---0---3---5---x---|
A#|0-----------3---0-----------2---|0-----------2---0---3---5---6---|
D#|0---0-0-0-0-3---0---0-0-0-0-2---|0---0-0-0-0-2---0---3---5-------|

1 e & a 2 e & a 3 e & a 4 e & a 1 e & a 2 e & a 3 e & a 4 e & a
. . . . . . . . . . . .


E#|--------------------------------|--------------------------------|
B#|--------------------------------|--------------------------------|
G#|--------------------------------|----------------------------8---|
D#|0-----------3---0-----------2---|0-----------2---0---3---5---x---|
A#|0-----------3---0-----------2---|0-----------2---0---3---5---6---|
D#|0---0-0-0-0-3---0---0-0-0-0-2---|0---0-0-0-0-2---0---3---5-------|

1 e & a 2 e & a 3 e & a 4 e & a 1 e & a 2 e & a 3 e & a 4 e & a
. . . . . . . . . . . .

(2:19):


E#|--------------------------------|--------------------------------|
B#|--------------------------------|--------------------------------|
G#|--------------------------------|--------------------------------|
D#|0---0-0-0-0-0-0-0---------------|0---0-0-0-0-0-0-0---------------|
A#|0---0-0-0-0-0-0-0---------------|0---0-0-0-0-0-0-0---------------|
D#|0---0-0-0-0-0-0-0---------------|0---0-0-0-0-0-0-0---------------|

1 e & a 2 e & a 3 e & a 4 e & a 1 e & a 2 e & a 3 e & a 4 e & a
. . . . . . . . . . . . N.C.


E#|--------------------------------|--------------------random------|
B#|--------------------------------|--------------------slide-by----|
G#|--------------------------------|--------------------2nd-guitar--|
D#|0---0-0-0-0-0-0-0---------------|0---0-0-0-0-0-0-0---------------|
A#|0---0-0-0-0-0-0-0---------------|0---0-0-0-0-0-0-0-------0-------|
D#|0---0-0-0-0-0-0-0---------------|0---0-0-0-0-0-0-0---------3-2-3-|

1 e & a 2 e & a 3 e & a 4 e & a 1 e & a 2 e & a 3 e & a 4 e & a
. . . . . . . . . . . .


E#|--------------------------------|--------------------------------|
B#|--------------------------------|--------------------------------|
G#|--------------------------------|--------------------------------|
D#|0---0-0-0-0-0-0-0---------------|0---0-0-0-0-0-0-0---------------|
A#|0---0-0-0-0-0-0-0---------------|0---0-0-0-0-0-0-0---------------|
D#|0---0-0-0-0-0-0-0-------8-------|0---0-0-0-0-0-0-0-------7-------|

1 e & a 2 e & a 3 e & a 4 e & a 1 e & a 2 e & a 3 e & a 4 e & a
. . . . . . . . . . . .


E#|--------------------------------|----------------|----------------|
B#|--------------------------------|----------------|----------------|
G#|--------------------------------|----------------|----------------|
D#|0---0-0-0-0-0-0-0---------------|3-3-3-3-3-3-3-3-|3-3-3-3-3-3-3-3-|
A#|0---0-0-0-0-0-0-0---------------|3-3-3-3-3-3-3-3-|3-3-3-3-3-3-3-3-|
D#|0---0-0-0-0-0-0-0-------8-------|3-3-3-3-3-3-3-3-|3-3-3-3-3-3-3-3-|

1 e & a 2 e & a 3 e & a 4 e & a 1 & 2 & 3 & 4 & 1 & 2 & 3 & 4 &
. . . . . . . . . . . . . . . . .

3rd Chorus (2:31):
[C#5add9]


E#|3---3---3---3---3---3---3---3---|1---1---1---1---1---1---1---1---|
B#|3---3---3---3---3---3---3---3---|1---1---1---1---3---3---3---3---|
G#|0---0---0---0---0---0---0---0---|2---2---2---2---2---2---2---2---|
D#|0---0---0---0---x---x---x---x---|3---3---3---3---0---0---0---0---|
A#|x---x---x---x---3---3---3---3---|3---3---3---3-------------------|
E#|3---3---3---3-------------------|1---1---1---1-------------------|

1 e & a 2 e & a 3 e & a 4 e & a 1 e & a 2 e & a 3 e & a 4 e & a |Play two times.
G#m C#madd9 F#5 D#m |


E#|--------------------------------|--------------------------------| /
B#|8~------------------------------|--------6~--------------6~------| /
G#|----7~------7~------7~--8~--7~--|----5~------5~--7~--------------| /
D#|--------8~------5~--------------|3~------------------7~------7~--| /
A#|--------------------------------|--------------------------------| /
D#|--------------------------------|--------------------------------|/

1 e & a 2 e & a 3 e & a 4 e & a 1 e & a 2 e & a 3 e & a 4 e & a

(2:42):


E#|3---3---3---3-------------------|----------------1---1---1---1---|
B#|3---3---3---3---3---3---3---3---|3---3---3---3---1---1---1---1---|
G#|0---0---0---0---2---2---2---2---|3---3---3---3---2---2---2---2---|
D#|0---0---0---0---1---1---1---1---|3---3---3---3---3---3---3---3---|
A#|x---x---x---x---1---1---1---1---|1---1---1---1---3---3---3---3---|
E#|3---3---3---3-------------------|----------------1---1---1---1---|

1 e & a 2 e & a 3 e & a 4 e & a 1 e & a 2 e & a 3 e & a 4 e & a |Play four times.
|


E#|--------------------------------|--------------------------------| /
B#|--------------------------------|--------------------------------| /
G#|--------------------------------|--------------------------------| /
D#|--------------------------------|--------------------------------| /
A#|--------------------------------|--------------------------------| /
D#|--------------------------------|--------------------------------|/

1 e & a 2 e & a 3 e & a 4 e & a 1 e & a 2 e & a 3 e & a 4 e & a

Outro (3:06):


E#|--------------------------------|--------------------------------|
B#|--------------------------------|--------------------------------|
G#|--------------------------------|--------------------------------|
D#|5~------------------------------|(5)-----------------------------|
A#|5~------------------------------|(5)-----------------------------|
D#|5~------------------------------|(5)-----------------------------|

Acoustic Guitar (Standard Tuning Up Half Step):
[C#5add9]


E#|3~------------------------------|3~------------------------------|
B#|3~------------------------------|3~------------------------------|
G#|0~------------------------------|0~------------------------------|
D#|0~------------------------------|x~------------------------------|
A#|x~------------------------------|3~------------------------------|
E#|3~------------------------------|--------------------------------|

1 e & a 2 e & a 3 e & a 4 e & a 1 e & a 2 e & a 3 e & a 4 e & a


E#|1~------------------------------|1~------------------------------|
B#|1~------------------------------|3~------------------------------|
G#|2~------------------------------|2~------------------------------|
D#|3~------------------------------|0~------------------------------|
A#|3~------------------------------|--------------------------------|
E#|1~------------------------------|--------------------------------|

1 e & a 2 e & a 3 e & a 4 e & a 1 e & a 2 e & a 3 e & a 4 e & a

Strumming pattern:
|E E E SS|[C#5add9]E E E SS|E E E SS|E E E SS|

Melody (Dave?) with acoustic sounding guitar:
[C#5add9]


E#|--------------------------------|--------------------------------|
B#|8~------------------------------|--------6~----------------------|
G#|----7~------7~------7~--8~--7~--|----5~------5~--8~--8~------5~--|
D#|--------8~------5~--------------|3~----------------------8~------|
A#|--------------------------------|--------------------------------|
D#|--------------------------------|--------------------------------|

1 e & a 2 e & a 3 e & a 4 e & a 1 e & a 2 e & a 3 e & a 4 e & a
[C#5add9]


E#|--------------------------------|--------------------------------|
B#|--------------------------------|--------6~----------------------|
G#|----7~------7~------7~--8~--7~--|----5~------5~--7~--------------|
D#|8~------8~------5~--------------|3~------------------7~------7~--|
A#|--------------------------------|------------------------8~------|
D#|--------------------------------|--------------------------------|

1 e & a 2 e & a 3 e & a 4 e & a 1 e & a 2 e & a 3 e & a 4 e & a
[C#5add9]


E#|--------------------------------|--------------------------------|
B#|--------------------------------|--------6~----------------------|
G#|----7~------7~------7~--8~--7~--|----5~------5~--8~--7~------5~--|
D#|5~------8~------5~--------------|3~----------------------8~------|
A#|--------------------------------|--------------------------------|
D#|--------------------------------|-----------ritard (slow down)...|

1 e & a 2 e & a 3 e & a 4 e & a 1 e & a 2 e & a 3 e & a 4 e & a

End on G#5.

3:38

The End

Lyrics:
Want it all…
Hey are we singing?

Take everything left from me!
All! To! Blame!

How can we still succeed?
Taking what we don’t need
Telling lies, alibies
Selling all the hate that we breed
Super-size our tragedy
(You disappoint me, or dis a fy gree)…?
Born in the land of the free
(Land! Free!)

And we’re all to blame
We’ve gone to far
From pride to shame
We’re trying so hard
We’re dieing in vain
We’re hopelessly blissful and blind
To all we are
We wanted all
With no sacriface!

Realize we spend our lives
Living in a culture of fear
Saying thanks to you…?
Say thanks to the man of the year
How did we all come to this?
(You disappoint me, or dis a fy gree)…?
We scream and we just can’t resist
(Re!-sist!)

And we’re all to blame
We’ve gone to far
From pride to shame
We’re trying so hard
We’re dieing in vain
We’re hopelessly blissful and blind
To all we are
We wanted all
Everyone wanted all
With no sacriface!

Tell me now
What have we done
We don’t know
I can’t allow
What has begun
…?
I’m are leaving now
We have no choice
Slept with our backs against the wall

And now
We’re all to blame
We’ve gone to far
From pride to shame
We’re hopelessly blissful and blind
When all we need
Is something true
To believe
Don’t we all
Everyone
Everyone
We will fall

‘Cause we’re all to blame
We’ve gone to far
From pride to shame
We’re trying so hard
We’re dieing in vain
We want it all
Everyone
Don’t we all

To play the this songs, including We’re All to Blame by Sum 41 by ukulele, the most crucial basic ukulele chords to learn are C chord, D chord, G chord, and Em chord.
These set you up to play a a lot of songs, and each of them is easy to master.

If you are looking for What Am I to Say ukulele chords, you already visit to the right place.
You can play versatile instrument What Am I to Say using ukulele or guitar.
This song by Sum 41 can also be played by that instruments.
=

What Am I to Say chords has rhythm and included in Screaming Bloody Murder (2011) album.
You can also get another musical style, including jazz ukulele chords, country music ukulele chords, pop ukulele chords, world music ukulele chords, and rock ukulele chords here.

What Am I to Say by Sum 41 Ukulele Chords


Intro:


e|-------------------------------------------|
B|---5---5---5---5---4---4---4---4-----------|
G|-----4---4---4---4---4---4---4---4---------|
D|-------------------------------------------|
A|-------------------------------------------|
E|-------------------------------------------|

What am I to say?
I’m all wrapped up in apathy
and I don’t want to stay this way
There’s nothing left to do
now that I am onto you
All I want to know is the truth

And I don’t want to go
but I feel like I should
Cause’ I’m falling apart
and I die, and die, and die

(figure out the dead strings)
How could you be the better part of me
when we’re only half of what we used to be?
Today, could you see, this isn’t what we need
and I’m leaving all the pieces how they fell
E~
So goodbye, farewell

What am I to say?
I still remember everyday
and memories don’t fade away
And it all falls apart
in the shadows of the past
It can seem to be so hard but it’s time the feelings pass

(dead strings)
How could you be the better part of me
when we’re only half of what we used to be?
Today, could you see, this isn’t what we need
and I’m leaving all the pieces how they fell
So goodbye, farewell

Solo:

Chords:E-B-C#m-A

Lead: (this part is tremolo picking)


e|--------------------------------------------------------------------------|
B|--------------------------------------------------------------------------|
G|--9999-8888-8/11-11-11-11-9999-11/1313131311-11-11-11-1313/14^14141414----|
D|--------------------------------------------------------------------------|
A|--------------------------------------------------------------------------|
E|--------------------------------------------------------------------------|

BTW I separated the 11’s with “-” so you won’t confuse it with 1’s


e|---------12--------12--------12--------12--------12--------14--------14---
B|---9-10------9-10------9-10------9-10------9-10------9-10------9-10-------
G|--------------------------------------------------------------------------
D|--------------------------------------------------------------------------
A|--------------------------------------------------------------------------
E|--------------------------------------------------------------------------
------14-14-14-14b--12~----------|
-9-10----------------------------|
---------------------------------|
---------------------------------|
---------------------------------|
---------------------------------|

To pull the trigger is now what you’ve waited for
I stand accused myself, sometimes I’m wrong, God help me
And hear beneath my lie, what am I praying for?
G# A E B~~~~~~~~~~~
I don’t believe in hell but I just might be there tonight

How could you be the better part of me
when we’re only half of what we used to be?
Today, could you see, this isn’t what we need
and I’m leaving all the pieces how they fell
So goodbye, farewell

[C#m–B-A]Oooooo
E~
Goodbye, farewell

Tabbed with an acoustic guitar so fell free to correct the wrong parts and it
sounds good in acoustic too haha tnx!

To play the this songs, including What Am I to Say by Sum 41 by ukulele, the most important basic ukulele chords to learn are C chord, D chord, G chord, and Em chord.
These set you up to play a many of songs, and each of them is easy to master.

If you are searching for We’re All to Blame ukulele chords, you already visit to the best place.
You can play versatile instrument We’re All to Blame using ukulele or guitar.
This song by Sum 41 can also be played by that instruments.
=

We’re All to Blame chords has rhythm and included in Chuck (2004) album.
You can also get another musical genres, including jazz ukulele chords, country music ukulele chords, pop ukulele chords, world music ukulele chords, and rock ukulele chords here.

We’re All to Blame by Sum 41 Ukulele Chords

Verse 1:
How can we still succeed


Ebm--Ebm-F#--Ebm--Ebm--Ebm-F--Ebm--Ebm--Ebm-E--Ebm--Ebm-E-Ebm-E

taking what we don’t need?
Telling lies as alibis
selling all the


Ebm--Ebm-F#--Ebm--Ebm--Ebm-F--Ebm--Ebm--Ebm-E--Ebm--Ebm-E-Ebm-E

hate that we breed
SUPERSIZE OUR TRAGE[Ebm–]DIES
(You can?t de-fine
me or justify greed)
Bought in the
land of the [Ebm–]free
(LAND, FREE)
and we’re

Chorus 1:
all to blame
We’ve gone too far
From pride to shame
We’re trying so hard
We’re dying in vain
We’re hopelessly
blissful and blind
to all we are
D# (hold) B A#m
We want it all
With no sa–cri[D#m-D#m-D#m-D#m]fice!!

Verse 2:
Realize we spend our lives


Ebm--Ebm-F#--Ebm--Ebm--Ebm-F--Ebm--Ebm--Ebm-E--Ebm--Ebm-E-Ebm-E

living in a culture of fear
Stand to salute say thanks


Ebm--Ebm-F#--Ebm--Ebm--Ebm-F--Ebm--Ebm--Ebm-E--Ebm--Ebm-E-Ebm-E

to the man of the year
How did we all come to this?
(You can?t de-fine
me or justify greed)
This greed that we
just can’t resist!
(RE—--SIST)
and we’re

Chorus 2:
all to blame
We’ve gone too far
From pride to shame
We’re trying so hard
We’re dying in vain
We’re hopelessly
blissful and blind
to all we are
We want it all
everyone want it all


F#(hold) D#m-D#m-D#m-F#-D#m-D#m-D#m-F-D#m-D#m-D#m-F-D#m-F#-G#m-E x2

with no SACRIFICE!!

Bridge:
Tell me now what have
we done? We don’t know!
I can’t allow what has
begun to tear me
down Believe me now
we have no choice left
With our backs against the wall!!!

Chorus 3:
And now we’re all to blame
We’ve gone too far
From pride to shame
We’re hopelessly
blissful and blind
When all we need
Is something true
To believe
Don’t we all?
Everyone everyone
We will fall coz we’re

Outro:
all to blame
We’ve gone too far
From pride to shame
We’re trying so hard
We’re dying in vain
We want it all
C#m F# D# G#m(hold)
Everyone don’t we all?

To play the most songs, including We’re All to Blame by Sum 41 by ukulele, the most crucial basic ukulele chords to learn are C chord, D chord, G chord, and Em chord.
These set you up to play a many of songs, and each of them is easy to master.

If you are looking for Never Wake Up ukulele chords, you have visit to the best place.
You can play versatile instrument Never Wake Up using ukulele or guitar.
This song by Sum 41 can also be played by that instruments.
=

Never Wake Up chords has rhythm and included in All Killer No Filler (2001) album.
You can also find other musical genres, including jazz ukulele chords, country music ukulele chords, pop ukulele chords, world music ukulele chords, and rock ukulele chords here.

Never Wake Up by Sum 41 Ukulele Chords


All Killer No Filler
2001 Aquarius Records
Submitted by: paramore_fans@yahoo.com

Key: B

Tuning: Standard EADGBe

Chords used:
E – [-] 022100
C#m – x46654
D -[-] xx0232
B – x24442

Verse 1:
Jump all you can
And you got out
your right foot
The sooner you get out
In your hide away
I might be left dead
Side of the road
Serves a place and time

Chorus 1:
I plan on never
waking up
(Repeat)

(Repeat Verse)

Chorus 2:
I plan on never
E D E D E(ending)
waking up
(Repeat x4)

To play the this songs, including Never Wake Up by Sum 41 by ukulele, the most important basic ukulele chords to learn are C chord, D chord, G chord, and Em chord.
These set you up to play a a lot of songs, and each of them is easy to master.

If you are searching for Welcome to Hell ukulele chords, you have visit to the best place.
You can play versatile instrument Welcome to Hell using ukulele or guitar.
This song by Sum 41 can also be played by that instruments.
=

Welcome to Hell chords has rhythm and included in Chuck (2004) album.
You can also get other musical style, including jazz ukulele chords, country music ukulele chords, pop ukulele chords, world music ukulele chords, and rock ukulele chords here.

Welcome to Hell by Sum 41 Ukulele Chords


Chuck
2004 Aquarius Records
Submitted by: paramore_fans@yahoo.com

In this song, bassist CONE MCCASLSIN finally show his true bass skills!!!
You will observe that this song is very diffiult to play in bass
because of the very fast bass lines!!!
if you’re a beginner!!! but as for Con, this is very easy to him
He can now match Rancid’s MATT FREEMAN’s skills!!!

Key: F#

Tuning: Standard EADGBe

Chords used:
Ebm – x68876
C# [-]- x46664
B – x24442
Bbm – x13321


Intro: Ebm--C#-Ebm--F#--C#-- x2

Verse 1:
Don’t come to me with your
problems I don’t need them
Your conscience is a
weight that I won’t hold
You’d rather be the
only one who pretends
Is it cause you’ve been
F# Ebm (Repeat Intro)
bought and sold so young!!!

Verse 2:
Don’t ask me questions cause
I don’t got the answers
If you only knew
what time would tell
It’s all a test and lessons
that you can’t learn
You’ll know when you
spend your time in hell

Cone: Verses


G|-----------------------------------------------------------------|
D|-----------------------------------------------------------------|
A|-6-6-6-4-6-6-6-4-6-6-6-4-6-6-6-6---------4-4-4-4-6-6-6-6-6-6-6-6-| x2
E|---------------------------------2-2-2-2-------------------------|

Cone: “So Young!!”


G|-----------------------------------|
D|-----------------------------------|
A|-6-6-6-4--6-6-6-4----------4-4-4-4-| x2
E|-------------------2-2-2-2---------|

Chorus:
So as your
blood’s running
thin your time’s
running out
No one will
be listening
not even when
you shout
When your angels
turn to
devils you’ll
finally figure out
That no one will be
with you in the end

Cone: Chorus


G|------------------------------|-------------------------------|
D|------------------1-3-4-3-1-3-|---------------11--1-3-4-3-1-3-|
A|-2-2-2---------4--------------|-2-2-2-------------------------|
E|--------2-2-2-----------------|--------2-2-2------------------|

x2


G|---------------------------------|
D|---------------------------------|
A|-6-6-6-6-1-1-1-1---------4-4-4-4-|
E|-----------------2-2-2-2---------|

Cone: Bass Solo 1, moderately fast!!!


G|---------------------------------|-8-8-8-8-8-8-8-8-8-8-8-8-8-8-8-8-|
D|-1-1-1-1-1-1-1-1-4-4-4-4-6-6-6-6-|---------------------------------|
A|---------------------------------|---------------------------------|
E|---------------------------------|---------------------------------|

x2


G|----------------------------|
D|-6h8p6--4h6p4--3h4p3--1h3p1-|
A|----------------------------|
E|----------------------------|

Verse 3:
A hypo-crite you’re
just a contradiction
Rapped up in your lies
who knows what’s real
Well this is it your
lonely life of fiction
Do you even
know how to feel

(Repeat Chorus)

Cone: Bass Solo 2, Very fast and difficult!!! your fingers must be fast here!!!


G|-------3-----------------------|---------------------------------|
D|-1-1-----4-4-4---------------0-|-1-1-1-1-1-1-1-1-4-4-4-4-4-4-4-4-|
A|----------------4-4--4---1-4---|---------------------------------|
E|-----------------------4-------|---------------------------------|

x14


G|-----------------6-6-6-6-6-6-6-6-|
D|---------------6-----------------|
A|-4-4-4-4-4-4-4-------------------|
E|---------------------------------|

(Repeat Chorus)

Outro:
The end
The end
The end
The end

To play the most songs, including Welcome to Hell by Sum 41 by ukulele, the most important basic ukulele chords to learn are C chord, D chord, G chord, and Em chord.
These set you up to play a many of songs, and each of them is easy to learn.

If you are looking for All She’s Got ukulele chords, you already visit to the best site.
You can play versatile instrument All She’s Got using ukulele or guitar.
This song by Sum 41 can also be played by that instruments.
=

All She’s Got chords has rhythm and included in All Killer No Filler (2001) album.
You can also find other musical genres, including jazz ukulele chords, country music ukulele chords, pop ukulele chords, world music ukulele chords, and rock ukulele chords here.

All She’s Got by Sum 41 Ukulele Chords


All She’s Got
All Killer No Filler
2001 Aquarius Records
Submitted by: paramore_fans@yahoo.com

Key: B

Tuning: Standard EADGBe

Chords used:
B – x24442
E – [-] 022100
[-]

Verse 1:
This place reminds me of
A time that’s way to old
These thoughts have gathered
up the memories unfold

Refrain:
but for now I don’t see what’s
so wrong with pretending
It’s true I thought you knew

Chorus:
Believe her it’s all
she’s got to pass the time
Believe her it’s over now
she’s passed her prime
Believe her It’s all
she’s got to keep things right
Believe her it’s all
she’s got it’s all she’s got

Post Chorus:
[B-E-F#] It’s all she’s got
[B-E-F#] It’s all she’s got

Lead Solo 1: B-E-F#-E x2

Verse 2:
These day keep getting worse
I’m wasting all my time
thought I’d come in first
instead I fell behind
I don’t know I don’t know
if I can keep this up to long
It seems most everytime
my motives are all wrong

(Repeat Refrain)
(Repeat Chorus)

Lead Solo 2: B-E-F#-E x2, G#m–F#–E–

Bridge:
It’s times like this
my time’s run out
It’s times like this
my time’s run out
It’s times like this
my time’s run out
It’s times like this I want to

(Repeat Chorus)

End on B(hold)

To play the most songs, including All She’s Got by Sum 41 by ukulele, the most important basic ukulele chords to learn are C chord, D chord, G chord, and Em chord.
These set you up to play a a lot of songs, and each of them is easy to learn.

If you are searching for Motivation ukulele chords, you have come to the right place.
You can play versatile instrument Motivation using ukulele or guitar.
This song by Sum 41 can also be played by that instruments.
=

Motivation chords has rhythm and included in All Killer No Filler (2001) album.
You can also get other musical style, including jazz ukulele chords, country music ukulele chords, pop ukulele chords, world music ukulele chords, and rock ukulele chords here.

Motivation by Sum 41 Ukulele Chords

Sum 41
All Killer No Filler
2001 Aquarius Records

Key: E

Tuning: Standard EADGBe

Chords used:
E – 022100
A – [-] x02220
B – x24442
C#m – x46654
[-]


Intro: E x4, E--G#m-A-E--G#m-A-E--G#m-A--B-G#m-A x2

Verse 1:
What’s the difference
of never knowing at all?
When every step I take
is always too small
Maybe it’s just something I
can’t admit but lately
I feel as I don’t give a sht

Chorus:
Motivation such
an aggravation
Accusations don’t
know how to take them
Inspiration’s getting
hard to fake it
Concentration never
hard to break it
Situation never what
you want it to be


Interlude: E--G#m-A-E--G#m-A-E--G#m-A--B-G#m-A x2

Verse 2:
What’s the point of
never making mistakes?
Self-indulgence such
a hard habit to break
It’s all just a waste
of time in the end
Don’t care so why
should I even pretend

(Repeat Chorus 1)

Bridge:
Nothing’s new
everything’s the same
Keeps on dragging me down
it’s getting kind of lame
Falling further behind
there’s nothing to explain
No matter what
you say nothing’s
gonna change my mind

Interlude: E–A-B x4

Verse 3:
Can’t depend on doubt
until the end
It seems like leaving
friends has become
This years trend and
though I can’t pretend
I’m framed to be this way
It’s not the same
but who’s to blame
For all the stupid
things I never said

Interlude: E-B-F#m-A x4

Chorus 2:
Motivation such
an aggravation
Accusations don’t know
how to take them
Inspiration’s getting
hard to fake it
Concentration never
hard to break it

Chorus 3:
Motivation such
an aggravation
Accusations don’t know
how to take them
Inspiration’s getting
hard to fake it
Concentration
Situation never


E--G#m-A-E--G#m-A-E--G#m-A

what you wanted to be


B G#m A E--G#m-A-E--G#m-A-E--G#m-A

Never what you wanted to be
B G#m A E(hold)
Never what you wanted to be

To play the this songs, including Motivation by Sum 41 by ukulele, the most important basic ukulele chords to learn are C chord, D chord, G chord, and Em chord.
These set you up to play a a lot of songs, and each of them is easy to learn.

  • 1
  • 2