If you are searching for Make You Feel ukulele chords, you have come to the right site.
You can play versatile instrument Make You Feel using ukulele or guitar.
This song by Sunk Loto can also be played by that instruments.
=

Make You Feel chords has rhythm and included in Big Picture Lies (2000) album.
You can also get other musical genres, including jazz ukulele chords, country music ukulele chords, pop ukulele chords, world music ukulele chords, and rock ukulele chords here.

Make You Feel by Sunk Loto Ukulele Chords

Title: Make You Feel
Good song, Good band, have fun. lukes guitar is tuned to C#.
To play this song write you need a distotion and tremmo pedal.


D#------------------------------------------------------------------------------
A#------------------------------------------------------------------------------
F#------------------------------------------------------------------------------
C#-3-3--5---3-3--5----3-3-------------------------------------------------------
A#-3-3--5---3-3--5----3-3-------------------------------------------------------
C#-3-3--5---3-3--5----3-3-------------------------------------------------------

distortion with a tremmo effect. intro.


D#------------------------------------------------------------------------------
A#------------------------------------------------------------------------------
F#-2/21-------------------------------------------------------------------------
C#------------------------------------------------------------------------------
G#------------------------------------------------------------------------------
C#------------------------------------------------------------------------------

pre verse. distorted.


D#---------/19------------------------------------------------------------------
A#--/22/22-----/19--------------------------------------------------------------
F#------------------------------------------------------------------------------
C#------------------------------------------------------------------------------
G#------------------------------------------------------------------------------
C#------------------------------------------------------------------------------

verse. distortes.listen to cd to write method and timing.


D#------------------------------|-----------------------------------------------
A#------------------------------|-----------------------------------------------
F#------------------------------|-----------------------------------------------
C#-3-3-5-7-7-0-0-0--------------|-x-x-x-x---------------------------------------
G#-3-3-5-7-7-0-0-0--------------|-x-x-x-x---------------------------------------
C#-3-3-5-7-7-0-0-0-3^2^---------|-x-x-x-x---------------------------------------

chorus. ^ harmonic. dist. do mutes on fourth time listn to cd.


D#-----------------0------------------------------------------------------------
A#------------------------------------------------------------------------------
F#-7---5------------------------------------------------------------------------
C#-7---5---2--------------------------------------------------------------------
G#-5---3---0--------------------------------------------------------------------
C#------------------------------------------------------------------------------

soft interlude were jason does the harmony thing.tremmo and dist.


D#------------|------------------------------------|----------------------------
A#------------|------------------------------------|----------------------------
F#------------|------------------------------------|----------------------------
C#---2--------|------------------------------------|-x-x-x----------------------
G#---0--------|------------------------------------|-x-x-x----------------------
C#------------|---0-6-0-0-6-0-0-0-6-0-0-6-0--------|-x-x-x----------------------

distorted. repeat as required.


D#-------------------------------------------|----------------------------------
A#---------------------------------------|----------------------------------
F#---------------------------------------|----------------------------------
C#-5-6-6-0-5-6-6-0----------------------|---1^-----8-----------------------
G#-5-6-6-0-5-6-6-0---------------------------|---1^-----6-----------------------
C#-5-6-6-0-5-6-6-0---------------------------|---1^-----6-----------------------

heavy dist. scratch with pic. harmonic at end

Sunk Loto-Make you feel Half a step down and in Dropped D

This is Sunks trickiest one yet. The verse will take some getting used
to but with practise should get easier.

intro


E--------------------------------]
B--------------------------------]
G--------------------------------]
D-10-10-12---10-10-12------------]
A-10-10-12---10-10-12------------]
D-10-10-12---10-10-12------------]

pre-verse


E---------------------------------------------------------------]
B---------------------------------------------------------------]
G---------------------------------------------------------------]
D-------------------------------------------0--slide-up--13-----]
A-0--slide up--15-12--10-0--slide-up--15-12----------------12---]
D---------------------------------------------------------------]

verse (good luck!)


E-17--17---19--15-----]
B---------------------]
G---------------------]
D---------------------] x 3
A---12--12---15--10---]
D---------------------]
E-17----------------------]
B-----19--18--------------]
G-------------------------]
D--------------12-12-12---]
A---12---------12-12-12---]
D-------15--14-12-12-12---]

chorus


E-------------------------------------------]
B-------------------------------------------]
G-------------------------------------------]
D-3-3-7-10-7-0-0-----3-3-7-10-7-0-0-0-------]
A-3-3-7-10-7-0-0-8-9-3-3-7-10-7-0-0-0-8-9---]
D-3-3-7-10-7-0-0-----3-3-7-10-7-0-0-0-------]
E---------------------------------------------]
B---------------------------------------------]
G---------------------------------------------]
D-3-3-7-10-7-0-0-----3-3-7-10-7---------------]
A-3-3-7-10-7-0-0-8-9-3-3-7-10-7-5-5-5-5-0-0---]
D-3-3-7-10-7-0-0-----3-3-7-10-7---------0-0---]

(heavily effected, maybe a phaser)


E---------------------------------------------]
B---------------------------------------------]
G-7----7---5-5--------------------------------]
D-7----7---5-5--------------------------------] x 4
A-5----5---3-3--------------------------------]
D---------------------------------------------]

drone on this
[G—)]D-0-)
A-0-)
D-0-)

“the money and the power…”


E-----------------------------]
B-----------------------------]
G-----------------------------]
D-----------------------------] x 8
A-----------------------------]
D-0-6-6-0-6-0-6-6-0-6-6-0-6---]

“send you BLIIIIND”


E----------------------------------------------------]
B----------------------------------------------------]
G----------------------------------------------------]
D-0-0-0--0-6-6-0-6-0-6-0-0-0-0-0-6-6-0-6-0-6-0-0-1---] x 4
A-0-0-0--0-6-6-0-6-0-6-0-0-0-0-0-6-6-0-6-0-6-0-0-1---]
D-0-0-0--0-6-6-0-6-0-6-0-0-0-0-0-6-6-0-6-0-6-0-0-1---]

drone on this to end
[D-1-)]

To play the most songs, including Make You Feel by Sunk Loto by ukulele, the most crucial basic ukulele chords to learn are C chord, D chord, G chord, and Em chord.
These set you up to play a a lot of songs, and each of them is easy to master.