If you are searching for I Feel Fine ukulele chords, you’ve come to the right site.
You can play versatile instrument I Feel Fine using ukulele or guitar.
This song by Sweethearts of the Rodeo can also be played by that instruments.
=

I Feel Fine chords has rhythm and included in One Time, One Night (1988) album.
You can also find other musical style, including jazz ukulele chords, country music ukulele chords, pop ukulele chords, world music ukulele chords, and rock ukulele chords here.

I Feel Fine by Sweethearts of the Rodeo Ukulele Chords

Written by:John Lennon/Paul McCartney
Note: First recorded by The Beatles.

I Feel Fine Sweethearts of the Rodeo

Intro D#


---------------------------------------
---------------------------9--8--6--8--
----6--7--8----8--8--6-----------------
-8----------------------8--------------
---------------------------------------
---------------------------------------


---------------------------------
-----------------7--6--4--6------
--6-6-6---4----------------------
--------------6------------------
---------------------------------
---------------------------------


--------------------------------
--------------------------------
------------------6--5--3--5----
--6--6--6---4-------------------
---------------6----------------
--------------------------------


---------------------------------
-------------9--8---6---8--------
-8-8-8-6-------------------------
----------8----------------------
---------------------------------
---------------------------------

1. Baby’s good to me you know he’s happy as can be you know
he said so I’m in love with him and I feel fine.
2. Baby says he’s mine you know she tells me all the time you know
he said so I’m in love with him and I feel fine.


I’m so glad that I’m his little girl He’s so glad he’s telling all the world.

That baby buys me things you know he buys me diamond rings you know
he said so he’s in love with me and I feel fine.

go to 2nd verse, chorus to ending
ending:
He’s in love with me and I feel fine.
He’s in love with me and I feel fine.

Instrumental ending.

To play the most songs, including I Feel Fine by Sweethearts of the Rodeo by ukulele, the most crucial basic ukulele chords to learn are C chord, D chord, G chord, and Em chord.
These set you up to play a ton of songs, and each of them is easy to learn.