If you are searching for Needle and Haystack Life ukulele chords, you’ve come to the right site.
You can play versatile instrument Needle and Haystack Life using ukulele or guitar.
This song by Switchfoot can also be played by that instruments.
=

Needle and Haystack Life chords has rhythm and included in Hello Hurricane (2009) album.
You can also get another musical style, including jazz ukulele chords, country music ukulele chords, pop ukulele chords, world music ukulele chords, and rock ukulele chords here.

Needle and Haystack Life by Switchfoot Ukulele Chords


Intro (really fast):

e|-3—3–1—1–0—0——–0————|
B|–1——1——1—–3-1-3————–|
G|—0——0——0———————–|
D|—————————————–|
A|—————————————–|
E|—————————————–|

The world begins, with newborn skin. We are right now
You’re a needle girl, in a haystack world. We are right now
You breathe it in: the highs and lows. We call it living
( Tab from: http://www.guitartabs.cc/tabs/s/switchfoot/needle_and_haystack_life_crd_ver_6.html )
In this needle and haystack life
I’ve found miracles there in your eyes
It’s no accident we’re here tonight
We are once in a lifetime

No, don’t let go. Don’t give up hope. All is forgiven
You breathe it in. You breathe it in. We call it living

Chorus

All is not lost. All is not lost
[(F)]Become who you are. It happens once in a lifetime

Intro
Chorus

To play the most songs, including Needle and Haystack Life by Switchfoot by ukulele, the most crucial basic ukulele chords to learn are C chord, D chord, G chord, and Em chord.
These set you up to play a many of songs, and each of them is easy to learn.

If you are looking for Live It Well ukulele chords, you already come to the right place.
You can play versatile instrument Live It Well using ukulele or guitar.
This song by Switchfoot can also be played by that instruments.
=

Live It Well chords has rhythm and included in Where the Light Shines Through (2016) album.
You can also get another musical style, including jazz ukulele chords, country music ukulele chords, pop ukulele chords, world music ukulele chords, and rock ukulele chords here.

Live It Well by Switchfoot Ukulele Chords

(Intro)

Yeah
(I wanna live it well)
Yeah, yeah
(I wanna live it well)
Yeah, eh eh

(Verse 1)

Take the burden from my arms
Take the anchors off my lungs
Take me broken and make me one
Break the silence and make it a song

{Chorus)

Life is short, I wanna live it well
One life, one story to tell
Life is short, I wanna live it well
And You’re the one I’m living for
Awaken all my soul
Every breath that you take is a miracle
Life is short, I wanna live it well (yeah)

(Verse 2)
I wanna sing with all my heart a lifelong song
Even if some notes come out right and some come out wrong
Cause I can’t take none of that through the door
Yeah, I’m living for more than just a funeral
I wanna burn brighter than the dawn

{Chorus)

Life is short, I wanna live it well
One life, one story to tell
Life is short, I wanna live it well
And You’re the one I’m living for
Awaken all my soul
Every breath that you take is a miracle
Life is short, I wanna live it well (yeah)

(Bridge)

I’ve got one life and one love
I’ve got one voice, but maybe that’s enough
Cause with one heartbeat and two hands to give
I’ve got one shot and one life to live
One life to live (yeah, eh eh)
Every breath you take is a miracle

{Chorus)

Life is short, I wanna live it well
One life, one story to tell
Life is short, I wanna live it well
And You’re the one I’m living for
Awaken all my soul
Every breath that you take is a miracle
Life is short, I wanna live it well (And You’re the one I’m living for)

(Outro)

One life, one love
One voice, but maybe that’s enough
One heartbeat and two hands to give
I’ve got one shot and one life to live
One life to live

To play the most songs, including Live It Well by Switchfoot by ukulele, the most crucial basic ukulele chords to learn are C chord, D chord, G chord, and Em chord.
These set you up to play a a lot of songs, and each of them is easy to master.

If you are looking for Living Is Simple ukulele chords, you already come to the right site.
You can play versatile instrument Living Is Simple using ukulele or guitar.
This song by Switchfoot can also be played by that instruments.
=

Living Is Simple chords has rhythm and included in Learning to Breathe (2000) album.
You can also find other musical style, including jazz ukulele chords, country music ukulele chords, pop ukulele chords, world music ukulele chords, and rock ukulele chords here.

Living Is Simple by Switchfoot Ukulele Chords


-------------------------------------------------------------------------------

Living Is Simple – Switchfoot


-------------------------------------------------------------------------------

Tabbed By : relientfoot
e-mail: rememberdefcow@gmail.com

This song is all about timing so you’ll have to listen to it a few times before you’ll
able to play it.

Tuning: Standard (EADG)


…Simple


G|---------------------------------------------|
D|---------------------------------------------|
A|--------7---7---5--------7-5---7-----5-777---|
E|------0---57-7----5--10-9----0---5-7------7--| x2

[VERSE 1]
Living is simple its gravity…


G|---------------------------------------------|
D|-----02------------------02--------02--------|
A|---2-------5-5--5-7-5---2---------2----------|
E|-0-----0-0-----7------0-----0-0-0------0-0---|x2

I’m falling apart again [then little guitar riff thing]


G|--------------------------------------------------------------|
D|--------------------------------------------------------------|
A|--------------2-22222-2222--------999-99--------999-99--------|
E|--2-22222-2222-------------00--77--------00--77---------------|

[Verse 2]
Living is simple and breathing is easy…


G|---------------------------------------------|
D|-----02------------------02--------02--------|
A|---2-------5-5--5-7-5---2---------2----------|
E|-0-----0-0-----7------0-----0-0-0------0-0---|x2

I’m losing my cool again


G|---------------------------------|
D|---------------------------------|
A|--------------2-22222-2222-------|
E|--2-22222-2222------------0------|

[Pre-chorus 1]
All will be made well will be made well will be made well will be well


G|----------------------------------------------------------------------------|
D|--------------------------------------------------9-------11--13--16--------|
A|------no bass------------------------7-------7--------9---------------------|
E|-----------------------------------------7----------------------------------|


Is this fiction?


G|---------------------------------------------------------|
D|---------------------------------------------------------|
A|--------------------0-00000-00002-22222-22220-00000------|
E|--------0-00000-0000-------------------------------------|

[ Tab from: http://www.guitartabs.cc/tabs/s/switchfoot/living_is_simple_btab.html ]
Is this fiction or divine comedy? …Simple


G|------------------------------------------------------------------------|
D|------------------------------------------------------------------------|
A|--------------------0-00000-00002-22222-2222--------------[bass cuts]---|
E|--------0-00000-0000------------------------2-22222-2222----------------|

(1:49)
…Simple


G|---------------------------------------------|
D|---------------------------------------------|
A|--------7---7---5--------7-5---7-----5-777---|
E|------0---57-7----5--10-9----0---5-7------7--|

[VERSE 3]
Living is dying…


G|---------------------------------------------|
D|-----02------------------02--------02--------|
A|---2-------5-5--5-7-5---2---------2----------|
E|-0-----0-0-----7------0-----0-0-0------0-0---|x2

Confessing my needs again [then little guitar riff thing x2]


G|--------------------------------------------------------------|
D|--------------------------------------------------------------|
A|--------------2-22222-2222--------999-99--------999-99--------|
E|--2-22222-2222-------------00--77--------00--77---------------|repeat the guitar riff part

I’ve had my choices… (2:32) NO BASS

(2:50)
Is this fiction?


G|---------------------------------------------------------|
D|---------------------------------------------------------|
A|--------------------0-00000-00002-22222-22220-00000------|
E|--------0-00000-0000-------------------------------------|

Is this fiction or divine comedy?


G|-------------------------------------------------------------|
D|-------------------------------------------------------------|
A|--------------------0-00000-00002-22222-2222-----------------|
E|--------0-00000-0000------------------------2-22222-2222-----|

…Simple, Living is Simple


G|---------------------------------------------------------------------------|
D|---------------------------------------------------------------------------|
A|-------------2-22222-2222------------2-22222-22220-00000-00000-00000-0000--|
E|-0-00000-0000------------2-22222-2222--------------------------------------|


…Simple


G|-----------------------------------------|
D|-----------------------------------------|
A|----2---------------------0--------------|
E|-----------0-------2---------------------|x2

(3:41)


G|------------------------------------------|
D|------6-7-6--------------------9----------|
A|--7-9---------7---2---------------9-------|
E|----------------------4---2---------------| (keep repeating; bass fades out)

| / slide up
| slide down
| h hammer-on
| p pull-off
| ~ vibrato
| + harmonic
| x Mute note

To play the most songs, including Living Is Simple by Switchfoot by ukulele, the most important basic ukulele chords to learn are C chord, D chord, G chord, and Em chord.
These set you up to play a many of songs, and each of them is easy to master.

If you are searching for Yet ukulele chords, you have come to the right site.
You can play versatile instrument Yet using ukulele or guitar.
This song by Switchfoot can also be played by that instruments.
=

Yet chords has rhythm and included in Hello Hurricane (2009) album.
You can also find another musical genres, including jazz ukulele chords, country music ukulele chords, pop ukulele chords, world music ukulele chords, and rock ukulele chords here.

Yet by Switchfoot Ukulele Chords

Song: Yet
Artist: Switchfoot
Album: Hello Hurricane

If you have a backing instrument it should (additionally) be playing the notes C&E from
Interlude 1 to the end except the bridge.
Alternatively you can play F as Fmaj7 and G as G6.

Intro: C C/F (x2)

Verse 1:
All attempts have failed
All my heads are tails
She’s got teary eyes
I’ve got reasons why

Prechorus 1:
[(G)] I’m losing ground and gaining speed
I’ve lost myself or most of me
I’m headed for the final precipice

Chorus:
But you haven’t lost me yet
No, you haven’t lost me yet
I’ll sing until my heart [Cmaj7/G]caves in
C (lead into interlude)
No, you haven’t lost me yet

Interlude 1: C Csus4 (x2)

Verse 2:
These days pass me by
I dream with open eyes
Nightmares haunt my days
Visions blur my nights

Prechorus 2:
I’m so confused, what’s true or false
What’s fact or fiction after all
I feel like I’m an apparition’s pet

Chorus (Change the lyrics ?I?ll sing? to ?I?ll run?)

Interlude 2: C Bb5 Fmaj7 (x2)

Bridge:
If it doesn’t break, if it doesn’t break, if it doesn’t break
If it doesn’t break your heart, it isn’t love
No, if it doesn’t break your heart, it’s not enough
It’s when you’re breaking down with your insides coming out
That’s when you find out what your heart is made of

Chorus (Final):
And you haven’t lost me yet[Cmaj7/G]
No, you haven’t lost me yet
I’ll sing until my heart [Cmaj7/G]caves in
C (lead into outro)
No, you haven’t lost me yet

Outro:
[C/F] ‘Cause you haven’t lost me yet

To play the most songs, including Yet by Switchfoot by ukulele, the most crucial basic ukulele chords to learn are C chord, D chord, G chord, and Em chord.
These set you up to play a ton of songs, and each of them is easy to master.

If you are looking for Poparazzi ukulele chords, you already come to the best site.
You can play versatile instrument Poparazzi using ukulele or guitar.
This song by Switchfoot can also be played by that instruments.
=

Poparazzi chords has rhythm and included in Learning to Breathe (2000) album.
You can also get another musical genres, including jazz ukulele chords, country music ukulele chords, pop ukulele chords, world music ukulele chords, and rock ukulele chords here.

Poparazzi by Switchfoot Ukulele Chords


INTRO
Gtr I (w/distortion)


|----------------------|-------------------------|
|------4----4-4-4-4----|--------------4----4-4---|
|------6b86-6-6-6r---|--------------6b86-6r--|
|----------------------|---5---5-5-3-------------|
|----------------------|-3---3-------------------|
|----------------------|-------------------------|

|
| Gtr II (clean)


|----------------------|-------------------------|
|----------------------|-------------------------|
|----------------------|-------------------------|
|----------------------|-2-----5-5-3-------------|
|--------------------1-|-3-x-x--------0----0-1---|
|----------------------|-------------------------|

1/4 bend


|---------------------------------|
|---------------------------------|
|---------------------------------|
|--------------3b3.53-3-3-3r--|
|-3-3-5-1-5-1---------------------|
|---------------------------------|

|


|---------------------------------|
|---------------------------------|
|---------------------------------|
|---------------------------------|
|-3-3-5-1-5-1---------------------|
|---------------------------------|
|-------------------------|-----------------|
|--------------4----4-4---|-----------------|
|--------------6b86-6r--|-----------------|
|---5---5-5-3-------------|-----------------|
|-3---3-------------------|-3-3-5-1-5-------|
|-------------------------|-----------1-----|

|


|-------------------------|-----------------|
|-------------------------|-----------------|
|-------------------------|-----------------|
|-------5-5-3-------------|-----------------|
|-3-x-x--------0----0-1---|-3-3-5-1-5-------|
|-------------------------|-----------1-----|

VERSE 1
Gtrs I, III (w/distortion)
C7 1/4 bend C7


|----------------------------------|-----------------------------|
|----------------------------------|----------------4-----4-4-4--|
|---3---3-3---3--------------------|---3---3-3---3--6b86-6-6r-|
|---2---2-2---2--x-3b3.53-3-3r-|---2---2-2---2---------------|
|-3---3-----3----x-----------------|-3---3-----3-----------------|
|----------------------------------|-----------------------------|

C7 1/4 bend C7


|---------------------------------|-----------------------------------|
|---------------------------------|----------------3h4p3---1--1h3p1---|
|---3---3-3---3-------------------|---3---3-3---3---------------------|
|---2---2-2---2--x-3b3.53-3-3r-|---2---2-2---2---------------------|
|-3---3-----3----x----------------|-3---3-----3-----------------------|
|---------------------------------|-----------------------------------|

|
| Gtr IV (w/distortion)


|---------------------------------|-----------------------------------|
|---------------------------------|--------------------4--------(4)---|
|---------------------------------|--------------------6b8(6)r--|
|---------------------------------|-----------------------------------|
|---------------------------------|-----------------------------------|
|---------------------------------|-----------------------------------|

CHORUS 1


|---------------------------------|----------------------------|
|---------------------------------|----------------------------|
|---------------------------------|----------------------------|
|-7-7-7-7-7-7-7---3-3-3-3-3-3-3-3-|-7-7-7-7-7-7-7--6--6--6--6--|
|-7-7-7-7-7-7-7-0-3-3-3-3-3-3-3-3-|-7-7-7-7-7-7-7--6--6--6--6--|
|-5-5-5-5-5-5-5-0-1-1-1-1-1-1-1-1-|-5-5-5-5-5-5-5--4--4--4--4--|

C5 g# a e5 C5 g# a e5


|----------------------------------|-----------------------------------|
|----------------------------------|-----------------------------------|
|--------13-13--14-14--10-10-10-10-|--------13-13--14-14--10-10-10-10--|
|-10-x-x---------------10-10-10-10-|-10-x-x---------------10-10-10-10--|
|-10-x-x-11-11--12-12---8--8--8--8-|-10-x-x-11-11--12-12---8--8--8--8--|
|--8-x-x---------------------------|--8-x-x----------------------------|

C5 b a 1/4 bend g#


|--------------------------------------------|--^4---^4-------|
|--------------------------------------------|--^4---^4-------|
|----------16-16-16-16-14-14-----------------|--^5---^5-------|
|-10-10-10--------------------12b12.5(12)r-|--^6---^6-------|
|-10-10-10-14-14-14-14-12-12-----------------|--^6---^6-----1-|
|--8--8--8-----------------------------------|----------------|

Gtr II


|--------------------------------|---------------------------|
|--------------------------------|---------------------------|
|--------------------------------|---------------------------|
|---5---5-5-3--------------------|---------------------------|
|-3---3---------------0--0--1----|-3-3-5-1-5-----------------|
|--------------------------------|-----------1---------------|

|
| Gtr IV


|--------------------------------|---------------------------|
|---------------4----(4)---(4)---|--------------4-----4-4-4--|
|---------------6b8(6)---(6)r--|--------------6b86-6-6r-|
|--------------------------------|---------------------------|
|--------------------------------|---------------------------|
|--------------------------------|---------------------------|

VERSE 2
Gtrs I, III
C7 1/4 bend C7 x2


||----------------------------------|------------------------------||
||o---------------------------------|----------------4-----4-4-4--o||
||----3---3-3---3-------------------|---3---3-3---3--6b86-6-6r--||
||----2---2-2---2--x-3b3.53-3-3r-|---2---2-2---2----------------||
||o-3---3-----3----x----------------|-3---3-----3-----------------o||
||----------------------------------|------------------------------||

CHORUS 2


|---------------------------------|----------------------------|
|---------------------------------|----------------------------|
|---------------------------------|----------------------------|
|-7-7-7-7-7-7-7---3-3-3-3-3-3-3-3-|-7-7-7-7-7-7-7--6--6--6--6--|
|-7-7-7-7-7-7-7-0-3-3-3-3-3-3-3-3-|-7-7-7-7-7-7-7--6--6--6--6--|
|-5-5-5-5-5-5-5-0-1-1-1-1-1-1-1-1-|-5-5-5-5-5-5-5--4--4--4--4--|

C5 g# a e5 C5 g# a e5


|----------------------------------|-----------------------------------|
|----------------------------------|-----------------------------------|
|--------13-13--14-14--10-10-10-10-|--------13-13--14-14--10-10-10-10--|
|-10-x-x---------------10-10-10-10-|-10-x-x---------------10-10-10-10--|
|-10-x-x-11-11--12-12---8--8--8--8-|-10-x-x-11-11--12-12---8--8--8--8--|
|--8-x-x---------------------------|--8-x-x----------------------------|

C5 b a g#


|--------------------------------------------|--^4---^4---^4----|
|--------------------------------------------|--^4---^4---^4----|
|----------16-16-16-16-14-14-----------------|--^5---^5---^5----|
|-10-10-10--------------------12b12.5(12)r-|--^6---^6---^6----|
|-10-10-10-14-14-14-14-12-12-----------------|--^6---^6---^6----|
|--8--8--8-----------------------------------|------------------|

BRIDGE
Piano solo e5 x2


|---------|------||----------------------------------||
|--rest---|-rest-||o----------------8------8--8--8--o||
|--four---|--2---||--9-9-9-9-9-9---10b1210-10-10r--||
|--beats--|-beats||--9-9-9-9-9-9---------------------||
|---------|------||o-7-7-7-7-7-7--------------------o||
|---------|------||----------------------------------||

Gtr III
C Am F G x4


||----^-8----^5-----^1-----^3---||
||o---^-8----^5-----^1-----^3--o||
||----^-9----^5-----^2-----^4---||
||----^10----^7-----^3-----^5---||
||o----------------------------o||
||--8-----5-----0-1----0-3------||

CHORUS 3


|---------------------------------|
|---------------------------------|
|---------------------------------|
|---------------------------------|
|---------------------------------|
|-5-5-5-5-5-5-5-5-1-1-1-1-1-1-1-1-|


|---------------------------------|---------------------------------|
|---------------------------------|---------------------------------|
|---------------------------------|---------------------------------|
|---------------------------------|---------------------------------|
|---------------------------------|-7-7-7-7-7-7-7-7-3-3-3-3-3-3-3-3-|
|-5-5-5-5-5-5-5-5-1-1-1-1-1-1-1-1-|-5-5-5-5-5-5-5-5-1-1-1-1-1-1-1-1-|

Gtrs I, III


|-------------------------|-------------------------------|
|-------------------------|-------------------------------|
|-------------------------|-------------------------------|
|-6--6--6--6--6--6--6--6--|-6--6--6-6-6-6-6-6-6-6-6-6-6-6-|
|-6--6--6--6--6--6--6--6--|-6--6--6-6-6-6-6-6-6-6-6-6-6-6-|
|-4--4--4--4--4--4--4--4--|-4--4--4-4-4-4-4-4-4-4-4-4-4-4-|

C5 g# a C5 g# a


|----------------------------------|----------------------------------|
|----------------------4----4-4-4--|----------------------4----4-4-4--|
|--------13-13--14-14--6b86-6-6r-|--------13-13--14-14--6b86-6-6r-|
|-10-x-x---------------------------|-10-x-x---------------------------|
|-10-x-x-11-11--12-12--------------|-10-x-x-11-11--12-12--------------|
|--8-x-x---------------------------|--8-x-x---------------------------|

C5 b a g#


|--------------------------------------------|--^4---^4---^4---^4--|
|--------------------------------------------|--^4---^4---^4---^4--|
|----------16-16-16-16-14-14-----------------|--^5---^5---^5---^5--|
|-10-10-10--------------------12b12.5(12)r-|--^6---^6---^6---^6--|
|-10-10-10-14-14-14-14-12-12-----------------|--^6---^6---^6---^6--|
|--8--8--8-----------------------------------|---------------------|

g#


|--^4---^4------|----------|-----------------|
|--^4---^4------|--rest----|------4----4-4---|
|--^5---^5------|---2------|------6b86-6r--|
|--^6---^6------|-measures-|-----------------|
|--^6---^6------|----------|-----------------|
|---------------|----------|-----------------|

OUTRO


|---------------------------------------------------------------------|
|------------------------------------------------------4-------4-4-4--|
|----------------3----3---------3------3---------------6b86-6-6r-|
|----------------2----2---------2------2------------------------------|
|--3---------------3----------------3---------------------------------|
|---------------------------------------------------------------------|

|
| 3/4 bend 3/4 bend 3/4 bend 3/4 bend


|---------------------------------------------------------------------|
|-12b13.5(12)r-----12b13.5(12)r---12b13.5(12)r--12b13.5(12)r---|
|---------------------------------------------------------------------|
|---------------------------------------------------------------------|
|---------------------------------------------------------------------|
|---------------------------------------------------------------------|


|--------------------------------------------------------------------|
|-------------------------------------------------------4----4-4-4---|
|-----------3-----------3-3--------3--------------------6b86-6-6r--|
|-----------2-----------2-2--------2---------------------------------|
|--3--------------3----------3---------------------------------------|
|--------------------------------------------------------------------|

|
| 3/4 gradual bend… gradual bend……………


|---------------------------15b1715-15-15-15-15-15-15r-----------|
|-12b13.512-12-12-12r---------------------------------------------|
|--------------------------------------------------------------------|
|--------------------------------------------------------------------|
|--------------------------------------------------------------------|
|--------------------------------------------------------------------|


|----------------------------------------------------------|
|-------------------------------------4-----(4)--4--4---4--|
|-------------3----3-------3-----3----6b8h(6)--6--6---6r-|
|-------------2----2-------2-----2-------------------------|
|--3------------3--------------3---------------------------|
|----------------------------------------------------------|

|
| 1/2 bend


|-20b22h(20)r-----20b22h(20)r------/20b21h20--20-20r---|
|----------------------------------------------------------|
|----------------------------------------------------------|
|----------------------------------------------------------|
|----------------------------------------------------------|
|----------------------------------------------------------|


|----------------------------|
|----------------4----4-4-4--|
|---3---3-3---3--6b86-6-6r-|
|---2---2-2---2--------------|
|-3---3-----3----------------|
|----------------------------|

C7 1/4 bend C7


|--------------------------------|----------------------------|
|--------------------------------|----------------4----4-4-4--|
|---3---3-3---3------------------|---3---3-3---3--6b86-6-6r-|
|---2---2-2---2--x-3b3.53-3-3r-|---2---2-2---2--------------|
|-3---3-----3----x---------------|-3---3-----3----------------|
|--------------------------------|----------------------------|

C7 1/4 bend Gtr II (clean)


|--------------------------------|----------------|
|--------------------------------|----------------|
|---3---3-3---3------------------|----------------|
|---2---2-2---2--x-3b3.53-3-3r-|-2-----5-5-3----|
|-3---3-----3----x---------------|-3-x-x----------|
|--------------------------------|----------------|

Tablature Legend


----------------

h – hammer-on
p – pull-off
b – bend
r – bend release (if no number after the r, then release immediately)
/ – slide into or out of (from/to “nowhere”)
– hold bend; also acts as connecting device for hammers/pulls
x – on rhythm slash represents muted slash
^ – arpeggio (downward sweep of pick on a chord)

Misc Legend


-----------

| – bar
|| – double bar
||o – repeat start
o|| – repeat end
| – double bar (ending)

To play the most songs, including Poparazzi by Switchfoot by ukulele, the most crucial basic ukulele chords to learn are C chord, D chord, G chord, and Em chord.
These set you up to play a a lot of songs, and each of them is easy to master.

If you are looking for Edge of My Seat ukulele chords, you’ve come to the best site.
You can play versatile instrument Edge of My Seat using ukulele or guitar.
This song by Switchfoot can also be played by that instruments.
=

Edge of My Seat chords has rhythm and included in The Legend of Chin (1997) album.
You can also find other musical style, including jazz ukulele chords, country music ukulele chords, pop ukulele chords, world music ukulele chords, and rock ukulele chords here.

Edge of My Seat by Switchfoot Ukulele Chords


Intro:

e|————–
B|————–
G|———-2-0-
D|-2-3-0-2-3—0
A|————–
D|————– 2x

Chords for the rest of Intro:
D(open) F D E F E D F 2x

Verse:
power chords
E G D G 3x
Pre-Verse 2:

e|——————-
B|——-2-2——22-
G|–2-2-4-4–2-2-4–4
D|-4-4——4-4——
A|——————-
D|——————-

power chords for this part are like so:

Verse 2:
power chords again
E G D G 3x
repeat the Pre-Verse 2 part only add these power chords:

Chorus:



then play the power chords that you use for the intro
I’m not really sure about the Bridge/Solo thing but I have some ideas, so
I’ll keep you posted on it. This is a song I’ve been wanting to learn for
a long time and last I heard not even Jon could remember what key it was in.
Have comments, suggestions, or requests? E-mail me at switchfootrocks@msn.com

Bek from the Jamesfever

To play the most songs, including Edge of My Seat by Switchfoot by ukulele, the most crucial basic ukulele chords to learn are C chord, D chord, G chord, and Em chord.
These set you up to play a a lot of songs, and each of them is easy to learn.

If you are looking for Awakening ukulele chords, you already visit to the right place.
You can play versatile instrument Awakening using ukulele or guitar.
This song by Switchfoot can also be played by that instruments.
=

Awakening chords has rhythm and included in Oh! Gravity. (2006) album.
You can also get other musical style, including jazz ukulele chords, country music ukulele chords, pop ukulele chords, world music ukulele chords, and rock ukulele chords here.

Awakening by Switchfoot Ukulele Chords

Intro chords:
E A (2x)

Intro tab:

E——————|
A——————|
D-2-4–6-4-6-4—–|
G—–4————|
B——————|
E——————|

(Repeat 4x)

Face down with the LA curbside ending
In ones and zeros.
Downtown was the perfect place to hide.
The first star that I saw last night was a headlight
of a man-made sky, but
Man-made never made our dreams collide, collide

(chorus)
Here we are now with the falling sky and the rain,
We’re awakening
Here we are now with the desperate youth and the pain,
We’re awakening
Maybe it’s called ambition, you’ve been talking in your sleep
About a dream, We’re awakening

Last week found me living for nothing but deadlines,
With my dead beat sky but, this town doesn’t look the same tonight
These dreams started singing to me out of nowhere
And I don’t know if I’ve ever felt so alive, alive
(chorus)

(Bridge)
I want to wake up kicking and screaming
I want to wake up kicking and screaming
I want to know that my heart’s still beating,
It’s beating, I’m bleeding.
I want to wake up kicking and screaming
I want to live like I know what I’m leaving
I want to know that my heart’s still beating,
It’s beating, It’s beating, It’s beating, I’m bleeding

(Chorus)

To play the most songs, including Awakening by Switchfoot by ukulele, the most crucial basic ukulele chords to learn are C chord, D chord, G chord, and Em chord.
These set you up to play a many of songs, and each of them is easy to learn.

If you are searching for Thrive ukulele chords, you’ve visit to the right site.
You can play versatile instrument Thrive using ukulele or guitar.
This song by Switchfoot can also be played by that instruments.
=

Thrive chords has rhythm and included in Vice Verses (2011) album.
You can also get another musical genres, including jazz ukulele chords, country music ukulele chords, pop ukulele chords, world music ukulele chords, and rock ukulele chords here.

Thrive by Switchfoot Ukulele Chords


Verse:
Been fighting things that I can’t see in
Like voices coming from the inside of me and
Like doing things I find hard to believe in
Am I myself or am I dreaming?

Pre-Chorus:
I’ve been awake for an hour or so
Checking for a pulse but I just don’t know
Am I a man when I feel like a ghost?
The stranger in the mirror is wearing my clothes

Chorus:
No I’m not alright
I know that I’m not right
A steering wheel don’t mean you can drive
A warm body don’t mean I’m alive
No I’m not alright
I know that I’m not right
Feels like I travel but I never arrive
I want to thrive not just survive


Verse 2:
I come alive when I hear you singing
But lately I haven’t been hearing a thing and
I get the feeling that I’m in between
A machine and a man who only looks like me
( Tab from: http://www.guitartabs.cc/tabs/s/switchfoot/thrive_crd.html )
Pre-Chorus:
I try and hide it and not let it show
But deep down inside me I just don’t know
Am I a man when I feel like a hoax?
The stranger in the mirror is wearing my clothes

Chorus

Bridge:
I’m always close but I’m never enough
I’m always in line but I’m never in love
I get so down but I won’t give up
I get slowed down but I won’t give up

Verse:
Been fighting things that I can’t see in
Like voices coming from the inside of me and
Like doing things I find hard to believe in
Am I myself or am I dreaming?

Am I myself or am I dreaming? (Thrive)

Chorus

I want to thrive not just survive
I want to thrive not just survive
Feels like I travel but I never arrive
I want to thrive not just survive

To play the most songs, including Thrive by Switchfoot by ukulele, the most important basic ukulele chords to learn are C chord, D chord, G chord, and Em chord.
These set you up to play a ton of songs, and each of them is easy to master.

If you are searching for Dirty Second Hands ukulele chords, you have come to the right place.
You can play versatile instrument Dirty Second Hands using ukulele or guitar.
This song by Switchfoot can also be played by that instruments.
=

Dirty Second Hands chords has rhythm and included in Oh! Gravity. (2006) album.
You can also get another musical genres, including jazz ukulele chords, country music ukulele chords, pop ukulele chords, world music ukulele chords, and rock ukulele chords here.

Dirty Second Hands by Switchfoot Ukulele Chords


CD: Oh! Gravity
Copywrite: 2006
Writer of Tab: WashburnGuitar9

Ok….I added the verse and octav. verse and i’m going to ad the strumming
so I’ll tell what the symbols mean:
If I put this symbolstrum up
from High E
and I will add the chords so you know everything…..HERE YA GO!
TUNING: Drop D as in this E B G D A D


E[------------------0--0-0-0---------------0--0-0-0]
B[------------------3--3-3-3---------------3--3-3-3]
G[------------------2--2-2-2---------------2--2-2-2] INTRO
D[-x-3-0------0-----0--0-0-0--3-0----0-----0--0-0-0]
A[--------3------------------------3]
D[---------------0-----------------------0]

> > >> > >

E[


B[----3-3-3-3--3----------]
G[----2-2-2-2--2----------5-5-5-5--7]
D[----0-0-0-0--2----------3-3-3-3--5] VERSE
A[-0------------------0]
D[-0------------------0]

> >> > >>

E[ D Asus4 Dm Asus4


B[--------3-3-3-3---3------3-3-3-3----3]
G[--------2-2-2-2---2------2-2-2-2----2] VERSE CONTINUED :
D[--------4-4-4-4---2------3-3-3-3----2]
A[-0--------------------0]
D[-0--------------------0]

> >> > >>

E[
B[


G[-5-5-5----------5-5-5] POST CHORUS
D[-3-3-3--4-4-4---3-3-3--4-4-4-5-6-7]
A[--------2-2-2----------2-2-2-3-4-5] WAIT PLAY X2

D[

E[
B[


G[---7-7-7--9-9-9-------10-10-10-----12-12-12]
D[---0-0-0--0-0-0-------0---0--0-----0--0---0] OCTAV. VERSE
A[-0-5-5-5--7-7-7----0--8---8--8-----10-10-10]
D[-0-----------------0]

E[
B[


G[-11-11-11---9-9-9------10-10-10----9-9-9 ]
D[---0-0-0----0-0-0-------0-0-0------0-0-0] OCTAVE. VERSE CONTINUED
A[-0-9-9-9----7-7-7---0---8-8-8------7-7-7] :
D[-0------------------0]

Thats dirty second hands….
: repeat
strum from HIGH E or from the number that has to be played

thats probably confusing you…. let me put it this way… if you strum up..
you strum from the highest string that is closest to HIGH E and farthes from
LOW E like the verse for instance…. the 324 thing..you gotta strum up
sometimes so you’ll strum for the 3 or the B string if you prefer and if you
got to strum down ( im using verse) you’ll strum the D string on fret 4….you
know what I mean but I hope you enjoy it! BRANDON

To play the this songs, including Dirty Second Hands by Switchfoot by ukulele, the most crucial basic ukulele chords to learn are C chord, D chord, G chord, and Em chord.
These set you up to play a many of songs, and each of them is easy to learn.

If you are searching for Underwater ukulele chords, you’ve come to the right site.
You can play versatile instrument Underwater using ukulele or guitar.
This song by Switchfoot can also be played by that instruments.
=

Underwater chords has rhythm and included in The Legend of Chin (1997) album.
You can also find other musical style, including jazz ukulele chords, country music ukulele chords, pop ukulele chords, world music ukulele chords, and rock ukulele chords here.

Underwater by Switchfoot Ukulele Chords


CD: the legend of chin
C 1997 re:think
Tab: Courtney Washington

Intro>


e|-----------------------------------------------------
b|-----------------------------------------------------
g|---7-----7-----7-----7---7-----7-----7---------------
d|---7-----7-----7-----7---7-----7-----7---------------
a|-5-----------5---------5-----------5---------3-4-(5)-
E|-----5-7---5-----5-7-------5-7---5-----5-6-7---------

Verses>


e|-----------------------------------------------------
b|-----------------------------------------------------
g|---7-----7-----4---6---7---3---6---9---7---3---4---6-
d|---7-----7-----3---5---7---3---5---9---7---3---3---5-
a|-5---------------------------------------------------
E|-----5-7---5-3---5---7---2---5---9---7---2---3---5---
e|--------------------------------
b|--------------------------------
g|---7-----7-----7----------------
d|---7-----7-----7----------------
a|-5-----------5---------3-4-(5)--
E|-----5-7---5-----5-6-7----------

VS1
it’s in her head
it’s in her mind
she can’t believe it
can’t believe she’s running out of time

and any hold that she can find
something to lean on
everybody fails her half the time
VS2
just like clockwork she climbs down
into her bottle
no one dowen there cares to know her name
VS3
she’s underwater but she won’t drown
she can’t believe it
and everyone she meets feels just the same

it takes all day to get to night
what makes the sunset
and what makes it go back to where it came

CHANNEL>


d|--9---8---7---6-

a|-(9)-(9)-(7)-(7)


E|--7---6---5---4-

nothing to be she’s already been


e|---| |---|
b|---| |---|

g|-7-| |-2-|
d|-7-| |-0-|
a|-5-| |—|
E|—| |-3-|


D G D G D G D (E|--2--0--|)

plenty of time plenty of time plenty of time

CHORUS>
[F#/A#]


e|-5-| |-2-| |---| |---| |---| |---|
b|-5-| |-0-| |---| |---| |---| |---|
g|-0-| |-2-| |---| |-7-| |-6-| |-4-|
d|-0-| |-0-| |-8-| |-7-| |-5-| |-3-|
a|---| |---| |-9-| |---| |---| |---|
E|-3-| |---| |-6-| |-7-| |-5-| |-3-|

she’s underwater nowhere now
underwater upside down
the rising tide won’t f[(F#/A#)]ind her now
she’s lost and found
underwater

CHANNEL>

BREAKDOWN> Bm D G x3 then F#7

CHORUS> +
now she’s upside down
now she’s six feet down
underwater

Intro riff>>>>

To play the this songs, including Underwater by Switchfoot by ukulele, the most important basic ukulele chords to learn are C chord, D chord, G chord, and Em chord.
These set you up to play a many of songs, and each of them is easy to learn.

  • 1
  • 2