If you are looking for Star ukulele chords, you’ve visit to the right site.
You can play versatile instrument Star using ukulele or guitar.
This song by The Cult can also be played by that instruments.
=

Star chords has rhythm and included in The Cult (1994) album.
You can also get other musical style, including jazz ukulele chords, country music ukulele chords, pop ukulele chords, world music ukulele chords, and rock ukulele chords here.

Star by The Cult Ukulele Chords


Star – The Cult (1994)

Excellent song from a very underrated band

Standard tuning

Intro x 2

1st verse
I believe in freedom freedom is her vision her found religion
I humble myself just to get some respect some respect

I kiss her sandalled foot she’s my holy pearl
The ghetto in your mind is treating her unkind
I kiss her sandalled foot (oh) she’s my holy pearl
The ghetto in your mind is treating her unkind yeah

CHORUS
Star – I’ll reach you if I try
Riot grrll show me the truth yeah
Star – I’ll reach you if I try
Riot grrll show me the truth yeah

Guitar solo

E A C D E x 2

I believe in liberation won’t you liberate me
Come on and take me well I took no holy vow
Won’t you hold this pagan soul hold my soul
I kiss her sandalled foot she’s my holy pearl
The ghetto in your mind is treating her unkind
I kiss her sandalled foot (oh) she’s my holy pearl
The ghetto in your mind is treating her unkind yeah

REPEAT CHORUS

Break A Bb G x 8

I believe in freedom freedom is her vision
Freedom is her vision
Freedom is her freedom is her vision

REPEAT CHORUS TO FADE

To play the this songs, including Star by The Cult by ukulele, the most crucial basic ukulele chords to learn are C chord, D chord, G chord, and Em chord.
These set you up to play a a lot of songs, and each of them is easy to learn.

If you are searching for The Saint ukulele chords, you already come to the best place.
You can play versatile instrument The Saint using ukulele or guitar.
This song by The Cult can also be played by that instruments.
=

The Saint chords has rhythm and included in Beyond Good and Evil (2001) album.
You can also get another musical style, including jazz ukulele chords, country music ukulele chords, pop ukulele chords, world music ukulele chords, and rock ukulele chords here.

The Saint by The Cult Ukulele Chords


(played 3 times)

|——————————–|
|——————————–|
|——————————–|
|5-/7-7/9-9-5–5–7-7–7-7–5—|
|3-/5-5/7-7-3–3–5-5–5-5–3—|
|——————————–|
|——————————–|
|——————————–|
|——————————–|
|5-/7-7/9-9-5–5–7-7–7-7–5–0|
|3-/5-5/7-7-3–3–5-5–5-5–3–0|
|——————————-0|

“Hail the guitar…..

(w/o distortion)

|—————————————————————–|
|—————————————————————–|
|————————————–0—————0———-|
|—————————————————5————-|
|———————————–3————3—————-|
|——————————–3——————————–|

In a power…

|—————————————————————–|
|3—————————————————————-|
|2————————————-0—————0———-|
|0————————————————–5————-|
|0———————————-3————3—————-|
|0——————————-3——————————–|

(Play Twice)

|—————————————————————–|
|3—————————————————————-|
|2————————————-0—————0———-|
|0————————————————–5————-|
|0———————————-3————3—————-|
|0——————————-3——————————–|

| |
| |

|—————————————————————–|
|—————————————————————–|
|——–5———–7——————5————————-|
|7———–7———–7——-7———-7—-5—-3—2—0—|
|—————————————————————–|
|—————————————————————–|

“The Singer Spits..”

(With heavy Distortion)

|—————————————————————–|
|—————————————————————–|
|—————————————————————–|
|7-X-X-X-X-X-X-X-5-X-X-X-X-X-X-X———————————-|
|5-X-X-X-X-X-X-X-3-X-X-X-X-X-X-X-3-X-X-X-X-X-X-X-1-X-X-X-X-X-X-X-X|
|——————————–3-X-X-X-X-X-X-X-1-X-X-X-X-X-X-X-X|

| |
|(w/o distortion) |

|—————————————————————–|
|3—————————————————————-|
|2—————————————————————-|
|0—————————————————————-|
|0—————————————————————-|
|0—————————————————————-|

|—————————————————————–|
|—————————————————————–|
|—————————————————————–|
|7-X-X-X-X-X-X-X-5-X-X-X-X-X-X-X———————————-|
|5-X-X-X-X-X-X-X-3-X-X-X-X-X-X-X-1-X-X-X-X-X-X-X-X-X-X-X-X-X-X-/3-|
|——————————–1-X-X-X-X-X-X-X-X-X-X-X-X-X-X-/3-|

(Play twice)
(heavy distortion)

|—————————————————————–|
|—————————————————————–|
|—————————————————————–|
|5-/7-7/9-9-5–5–7-7–7-7–5—3—3—3–3–3——————|
|3-/5-5/7-7-3–3–5-5–5-5–3—1—1—1–1–1-3—3-3–0–3–3-|
|————————————————3—3-3–0–3–3-|

(Play twice)

|—————————————————————–|
|—————————————————————–|
|—————————————————————–|
|5-/7-7/9-9-5–5–7-7–7-7–5—3—3—3–3–3——————|
|3-/5-5/7-7-3–3–5-5–5-5–3—1—1—1–1–1-3—3-3–0–3–3-|
|————————————————3—3-3–0–3–3-|

| |
| |
|(w/o distortion) |

|—————————————————————–|
|—————————————————————–|
|5-/7-7/9-9-5–5—7—-7—5—5-/7-7/9-9-5–5—7—-7—5—-|
|—————————————————————–|
|—————————————————————–|
|—————————————————————–|

(Play Twice)

|—————————————————————–|
|3—————————————————————-|
|2————————————-0—————0———-|
|0————————————————–5————-|
|0———————————-3————3—————-|
|0——————————-3——————————–|

| |
| |

|—————————————————————–|
|—————————————————————–|
|——–5———–7——————5————————-|
|7———–7———–7——-7———-7—-5—-3—2—0—|
|—————————————————————–|
|—————————————————————–|

| |
| |

|————————————————-15–13–12–10-|
|—————————————————————–|
|—————————————————————–|
|—————————————————————–|
|—————————————————————–|
|—————————————————————–|

“Caught in a trap..”

(With heavy Distortion)

|—————————————————————–|
|—————————————————————–|
|—————————————————————–|
|7-X-X-X-X-X-X-X-5-X-X-X-X-X-X-X———————————-|
|5-X-X-X-X-X-X-X-3-X-X-X-X-X-X-X-3-X-X-X-X-X-X-X-1-X-X-X-X-X-X-X-X|
|——————————–3-X-X-X-X-X-X-X-1-X-X-X-X-X-X-X-X|

| |
|(w/o distortion) |

|—————————————————————–|
|3—————————————————————-|
|2—————————————————————-|
|0—————————————————————-|
|0—————————————————————-|
|0—————————————————————-|

|—————————————————————–|
|—————————————————————–|
|—————————————————————–|
|7-X-X-X-X-X-X-X-5-X-X-X-X-X-X-X———————————-|
|5-X-X-X-X-X-X-X-3-X-X-X-X-X-X-X-1-X-X-X-X-X-X-X-X-X-X-X-X-X-X-/3-|
|——————————–1-X-X-X-X-X-X-X-X-X-X-X-X-X-X-/3-|

(Play twice)
(heavy distortion)

|—————————————————————–|
|—————————————————————–|
|—————————————————————–|
|5-/7-7/9-9-5–5–7-7–7-7–5—3—3—3–3–3——————|
|3-/5-5/7-7-3–3–5-5–5-5–3—1—1—1–1–1-3—3-3–0–3–3-|
|————————————————3—3-3–0–3–3-|

(Play twice)

|—————————————————————–|
|—————————————————————–|
|—————————————————————–|
|5-/7-7/9-9-5–5–7-7–7-7–5—3—3—3–3–3——————|
|3-/5-5/7-7-3–3–5-5–5-5–3—1—1—1–1–1-3—3-3–0–3–3-|
|————————————————3—3-3–0–3–3-|

| |
| |
|(w/o distortion) |

|—————————————————————–|
|—————————————————————–|
|5-/7-7/9-9-5–5—7—-7—5—5-/7-7/9-9-5–5—7—-7—5—-|
|—————————————————————–|
|—————————————————————–|
|—————————————————————–|

SOLO

|—————————————–|
|—————————————–|
|—————————————–|
|3—-3—-3——————————|
|1—-1—-1—3-/-10–10–10–10–10–10-|
|————–3-/-10–10–10–10–10–10-|

| |
| |

|—————————————–|
|5)H(———5)H(———5)H—5~——-|
|——-5————5——————–|
|—————————————–|
|—————————————–|
|—————————————–|

|—————————————–|
|—————————————–|
|—————————————–|
|3—-3—-3——————————|
|1—-1—-1—3-/-10–10–10–10–10–10-|
|————–3-/-10–10–10–10–10–10-|

| |
| |

|—————————————–|
|5)H(—–3————–3—3)H(———|
|————–5—–5————-5——|
|—————————————–|
|—————————————–|
|—————————————–|

|—————————————–|
|—————————————–|
|—————————————–|
|3—-3—-3—3-/-10–10–10–10–10–10-|
|1—-1—-1—3-/-10–10–10–10–10–10-|
|—————————————–|

| |
| |

|—————————————–|
|5)H(———5)H(———5p6–/—8—–|
|——-5————5——————–|
|—————————————–|
|—————————————–|
|—————————————–|

|——————————–|
|——————————–|
|——————————–|
|2-X-X-X-X-X-X-X-X-X-X-X-X-X-X-X-|
|0-X-X-X-X-X-X-X-X-X-X-X-X-X-X-X-|
|——————————–|

| |
| |

|——————————–|
|10~—10~—10~—15~-15~—15~-|
|——————————–|
|——————————–|
|——————————–|
|——————————–|

Play 4 times

|—————————————————————–|
|—————————————————————–|
|—————————————————————–|
|5-/7-7/9-9-5–5–7-7–7-7–5—3—3—3–3–3——————|
|3-/5-5/7-7-3–3–5-5–5-5–3—1—1—1–1–1-3—3-3–0–3–3-|
|————————————————3—3-3–0–3–3-|

| |
| |
|(w/o distortion) |

|—————————————————————–|
|—————————————————————–|
|5-/7-7/9-9-5–5—7—-7—5—5-/7-7/9-9-5–5—7—-7—5—-|
|—————————————————————–|
|—————————————————————–|
|—————————————————————–|

(played 3 times)

|——————————–|
|——————————–|
|——————————–|
|5-/7-7/9-9-5–5–7-7–7-7–5—|
|3-/5-5/7-7-3–3–5-5–5-5–3—|
|——————————–|

| |
| |

|——————————–|
|——————————–|
|5-/7-7/9-9-5–5—7—-7—5—|
|——————————–|
|——————————–|
|——————————–|

| |
| |

|——————————–|
|15~—15~—15~—15~-15~—15~-|
|——————————–|
|——————————–|
|——————————–|
|——————————–|
|——————————–|
|——————————–|
|——————————–|
|5-/7-7/9-9-5–5–7-7–7-7–5–0|
|3-/5-5/7-7-3–3–5-5–5-5–3–0|
|——————————-0|

| |
| |

|——————————–|
|——————————–|
|5-/7-7/9-9-5–5—7—-7—5—|
|——————————–|
|——————————–|
|——————————–|

| |
| |

|——————————–|
|15~—15~—15~—15~-15~—15~-|
|——————————–|
|——————————–|
|——————————–|
|——————————–|

To play the this songs, including The Saint by The Cult by ukulele, the most crucial basic ukulele chords to learn are C chord, D chord, G chord, and Em chord.
These set you up to play a many of songs, and each of them is easy to master.

If you are looking for Star ukulele chords, you already visit to the right site.
You can play versatile instrument Star using ukulele or guitar.
This song by The Cult can also be played by that instruments.
=

Star chords has rhythm and included in The Cult (1994) album.
You can also get other musical genres, including jazz ukulele chords, country music ukulele chords, pop ukulele chords, world music ukulele chords, and rock ukulele chords here.

Star by The Cult Ukulele Chords


Star – The Cult (1994)

Excellent song from a very underrated band

Standard tuning

Intro x 2

1st verse
I believe in freedom freedom is her vision her found religion
I humble myself just to get some respect some respect

I kiss her sandalled foot she’s my holy pearl
The ghetto in your mind is treating her unkind
I kiss her sandalled foot (oh) she’s my holy pearl
The ghetto in your mind is treating her unkind yeah

CHORUS
Star – I’ll reach you if I try
Riot grrll show me the truth yeah
Star – I’ll reach you if I try
Riot grrll show me the truth yeah

Guitar solo

E A C D E x 2

I believe in liberation won’t you liberate me
Come on and take me well I took no holy vow
Won’t you hold this pagan soul hold my soul
I kiss her sandalled foot she’s my holy pearl
The ghetto in your mind is treating her unkind
I kiss her sandalled foot (oh) she’s my holy pearl
The ghetto in your mind is treating her unkind yeah

REPEAT CHORUS

Break A Bb G x 8

I believe in freedom freedom is her vision
Freedom is her vision
Freedom is her freedom is her vision

REPEAT CHORUS TO FADE

To play the most songs, including Star by The Cult by ukulele, the most crucial basic ukulele chords to learn are C chord, D chord, G chord, and Em chord.
These set you up to play a many of songs, and each of them is easy to master.

If you are searching for White ukulele chords, you have visit to the best site.
You can play versatile instrument White using ukulele or guitar.
This song by The Cult can also be played by that instruments.
=

White chords has rhythm and included in Ceremony (1991) album.
You can also find another musical style, including jazz ukulele chords, country music ukulele chords, pop ukulele chords, world music ukulele chords, and rock ukulele chords here.

White by The Cult Ukulele Chords


Time:0:20

———————————————————————————————————|
T——————————————————————————————————–|
A—-14——12—–10—–9h10p9——–7——–5~~~—————————————————|
B——————————————————————————————————–|
———————————————————————————————————|
———————————————————————————————————|

White, oh shining, shining

—————————————————————–17——15——13——-12h13p12——-|
T——————————————————————————————————–|
A—14—-12—–10—–9h10p9——7~~~~—————————————————————-|
B——————————————————————————————————–|
———————————————————————————————————|
———————————————————————————————————|

brightly, pure crystal snow, White oh virgin,

———————————-17—–15—–13—–12–13–15—————————————-|
–15—–13~~~~———————————————————–15—————————–|
———————————————————————————————————|
———————————————————————————————————|
———————————————————————————————————|
———————————————————————————————————|

Now it gets even cooler!

Time 0:40

—0—–0—-0——-0——-0——-0——————————————————————|
—0—–0—-0——-0——-0——-0——————————————————————|
—2—–2—-2——-2——-2——-2——————————————————————|
—0—–0—-0——-3——-0——-0——————————————————————|
—0—–0—-0——-0——-3——-0——————————————————————|
—0—–0—-0——-0——-0——-3——————————————————————|

Play this 3 times, the 4th time the drums kick in.

If using one guitar, switch to the power chords from the intro as Ian is singing “White, White white..”
If using two, just double it.

First verse:
For 1 guitar, play the power chords as heard in the song,
With 2, one can play the power while 1 plays the full (open) chords.
The snow is crystal, the fire is cold,
I sit back, watch the sun turn to gold.
In the morning, love is healing,
warms the frost deep in my bones.
And then mama said white,

Chorus
(same chords but doubled. 1 electric 1 acoustic )

White white
it’s shining shining bright
white, white, shining
shining brightly.

Back to that cool little riff from the 0:40 mark…

Verse 2:

The hunter sits on a pure white stallion,
a hawk in flight, a bow in his hand,
A deer approaches, at the edge of the forest,
the arrow flies, blood on the snow…

The over dubs here go…

———————————————————————————————————|
————————————————————————————–15—————–|
—5sl.7——————————————————————12h14————————–|
—————————————————-12—————————————————|
———————————————————————————————————|
———————————————————————————————————|

The hunter… …A deer approaches….of the forest

———————————————————————————————————|
———————————————————————————————————|
———————14————-14—14——-14p12—-12—–12—-12p10—-10—10—————–|
—12—————————————————————————————————-|
———————————————————————————————————|
———————————————————————————————————|

The arrow flies, blood on the snow

———————————————————————————————————|
———————————————————————————————————|
—–10p9——-7—9———–7p5———————5————-5sl.7——————————|
————————————————7——————————————————–|
———————————————————————————————————|
———————————————————————————————————|

I said mama said white… (Chorus again)

———————————————————————————————————|
———————————————————————————————————|
———————————————————————————————————|
———————————————————————————————————|
———————————————————————————————————|
———————————————————————————————————|

To play the this songs, including White by The Cult by ukulele, the most important basic ukulele chords to learn are C chord, D chord, G chord, and Em chord.
These set you up to play a many of songs, and each of them is easy to learn.

If you are looking for Sun King ukulele chords, you’ve come to the best place.
You can play versatile instrument Sun King using ukulele or guitar.
This song by The Cult can also be played by that instruments.
=

Sun King chords has rhythm and included in Sonic Temple (1989) album.
You can also get other musical style, including jazz ukulele chords, country music ukulele chords, pop ukulele chords, world music ukulele chords, and rock ukulele chords here.

Sun King by The Cult Ukulele Chords


(Intro)
Intro: Bass for guitar, play 5 times

|——————————-|——————————–|
|——————————-|——————————–|
|——————————-|——————————–|
|——————————-|——————————–|
|——————3-3–5-5—–|——————————–|
|-3/5’3/5-3/5-3/5—————|–3/5’3/5-3/5-3/5′-3~~~———|

Intro 2: solo enters on third bass riff (the fourth measure is tabbed
to sound the same as the second measure; not the same as the song)

|——————————-|——————————–|
|——————————-|——————————–|
|————5h7p5-^7-7-5——-|–5p4—-7-5-(4)—————-|
|–5/7~————————-|—————–5-7~———–|
|——————————-|——————————–|
|——————————-|——————————–|
|——————————-|——————————–|
|————13h15p13-^15-15-13-|–13p12—15-13-12————–|
|–12/14————————|——————–12-14~——|
|——————————-|——————————–|
|——————————-|——————————–|
|——————————-|——————————–|

Main riff: If this does not sound heavy enough it is because
Guitar 2 plays a power cord on each slide.
3/5: -5-
[-3-]
5/7: -7-
[-5-]

|——————————-|——————————–|
|——————————-|——————————–|
|——————————-|——————————–|
|———7-5-4—————–|——–7-5-4——————-|
|——————————-|–3/5—————————|
|–3/5————————–|——————————–|
|——————————-|——————————–|
|——————————-|——————————–|
|——————————-|——————————–|
|——–7-5-4——————|——–7-5-4——————-|
|–5/7————————–|–3/5—————————|
|——————————-|——————————–|

To play the this songs, including Sun King by The Cult by ukulele, the most important basic ukulele chords to learn are C chord, D chord, G chord, and Em chord.
These set you up to play a a lot of songs, and each of them is easy to master.

If you are searching for Soldier Blue ukulele chords, you already come to the right site.
You can play versatile instrument Soldier Blue using ukulele or guitar.
This song by The Cult can also be played by that instruments.
=

Soldier Blue chords has rhythm and included in Sonic Temple (1989) album.
You can also find another musical genres, including jazz ukulele chords, country music ukulele chords, pop ukulele chords, world music ukulele chords, and rock ukulele chords here.

Soldier Blue by The Cult Ukulele Chords


This has been taken from http://www.cultcentral.com/guitar/SoldierBlue.txt
I did not tab this and thank you to Pedro Sousa for tabbing this kik ass song out!

Soldier Blue

the cult – sonic temple 1989

transcribed by pedro sousa (pedro.sousa@mail.teleweb.pt)

here’s another great song from the also great sonic temple, in my opinion it’s pretty
I have doubts about the pre-chorus though. send me any corrections!

/ – slide
~ – vibratto
. – stacatto
h – hammer on
p – pull off
(5) – grace note (slides)
– artificial harmonic
brp [-]- bend release pull off
? – when I can’t make out the lyrics

intro: x4 with some whammy bar effects (try the harmonic at 7th fret second string)

1st/3rd 2nd 4th


e-----------------------|-------|------|
b-----------------------|-------|------|
g---2--4p(2)-4p(2)-4----|--7~~--|--2---|
d---2--4p(2)-4p(2)-4----|--7~~--|--2---|
a---0--2-----2-----2----|--5~~--|--0---|
E-----------------------|-------|------|

riff 1
chords: B5 A5 D5 E5/A5


e----------------------------------------------------------------|
b----------------------------------------------------------------|
g---9-8-9------9-8-9-/11---11-9-8-9-8-------9-8-------9-7--------|
d---------9-9------------9------------9-7-9-----9-7-9-----9-7----|
a----------------------------------------------------------------|
E----------------------------------------------------------------|
e-----------------------------------|
b-----------------------------------|
g--/11-9-8-9-8--/11-9-8-9-8---------|
d---------------------------9-7-9---|
a-----------------------------------|
E-----------------------------------|

verse 1:
. . . .
chords: B5 B5A5 D5 E5/A5

play A5 right after B5 (listen to the song)

soldier blue bloodstained red
hey people it’s gonna bust your head
a real bad dream yeah you know it’s true
kiss his boots or you’ll be through
out of the night comes a soldier ridin’
line you up in his gun sight

pre-chorus:
slide to A5 only the last time
chords: B5 A5 D5 E5/A5

this is played over the pre chorus


e--------------------------------------|
b-------------------------------14b-14-|
g-2~-4~-5~-7~-9~-11~-12~-14~-16~-------|
d--------------------------------------|
a--------------------------------------|
E--------------------------------------|

his mind’s exploded ego’s overloaded
hey children started runnin’

chorus: same as riff1 x2

soldier blue love is out of season
soldier blue yeah ain’t fighting for no reason no no

verse 2: same as the first but the D5 rings out more and has small slide before it

a soldier blue a soldier fried
he’s gonna bust up everything in sight
a real heavy dude in a killing mood
pack your bags or you’ll be through
you’ll be through yeah
it’s guaranteed to shater all your dreams

pre-chorus:

chorus:

interlude: palm muted root notes

use this clean bit when necessary in this part


e--0-----0-----0------------|
b----0-----0-----0----------|
g------2-----2-----2--------|
d---------------------------|
a---------------------------|
E---------------------------|

B DA B
I see the sunset sea on fire ships burn off the coast of orion
dreams of peace wait on the horizon for yee
B DA
clouds filled with blood rain on the water
?'’ night time fingers clench the last ‘'

DB DA B G B A
our sister rides a horse of apocalypse now is the closing

during this last phrase
play the same thing but strike the chords between the root notes (heavy metal style)

play this over it


e-----12brp10-12-prebend12rp10--12brp-12~-hold-b--|
b--12---------------------------------------------|
g-------------------------------------------------|
d-------------------------------------------------|
a-------------------------------------------------|
E-------------------------------------------------|

solo:

part 1 (play the intro)
love has no season come on shake it stealer


e-------------------------10b-hold-rp7--------------------------------------------------|
b---9b-9b-9b-9b-9b-9b-9b----------------10-7-10/(12)~~----------------------------|
g---9b-9b-9b-9b-9b-9b-9b--------------------------------7-7-7--7-7---7-7------9~~-7~~~~-|
d-------------------------------------------------------9-----9----9-----9~~------------|
a---------------------------------------------------------------------------------------|
E---------------------------------------------------------------------------------------|

part 2:

chords: B5 D5 E5 B5 D5 B5

end it here the second time


e--------------------7--------------------------------------------------|
b------------------7---10-7-10brp7--------------------------------------|
g--9brp7--9b~~-~9b-----------------9brp7-9-7---------9-7----------------|
d--------------------------------------------9~-9~-------9-7------------|
a------------------------------------------------------------9-8-7-5----|
E--------------------------------------------------------------------7~-|
e----------------------------------7-10p7----7------------7-10p7----7---------------------------|
b------------------------10b-10b----------10---10-7--------------10---10-7-----------10/(12)~~-|
g-------------------7h9-----------------------------9brp7------------------9brp7----7-----------|
d------------7~~--9---------------------------------------------------------------9-------------|
a----5-7/(9)------------------------------------------------------------------------------------|
E--7--------------------------------------------------------------------------------------------|

chorus:

the end uses the same chords as riff 1 but the phrasing is different
once again you must listen to the song, there’s also a solo over it.

[E5/]
suggestions, corrections, comments welcome at pedro.sousa@mail.teleweb.pt

To play the this songs, including Soldier Blue by The Cult by ukulele, the most crucial basic ukulele chords to learn are C chord, D chord, G chord, and Em chord.
These set you up to play a a lot of songs, and each of them is easy to master.

If you are searching for Wonderland ukulele chords, you’ve come to the right place.
You can play versatile instrument Wonderland using ukulele or guitar.
This song by The Cult can also be played by that instruments.
=

Wonderland chords has rhythm and included in Ceremony (1991) album.
You can also find other musical style, including jazz ukulele chords, country music ukulele chords, pop ukulele chords, world music ukulele chords, and rock ukulele chords here.

Wonderland by The Cult Ukulele Chords


tune guitar 1/2 step down (Eb Ab Db Gb Bb Eb)

intro


e--------------------------------------------------------------------|
b----2~~--5~~--7~~-/--14~~---2~~--/9--5p4h5--------------------------|
g-------------------------------------------5--3--5-5/(7)~~~~--------|
d--------------------------------------------------------------------|
a--------------------------------------------------------------------|
E--------------------------------------------------------------------|

Heavy pick slide Then:

Riff 1 x4


e---------------------------------------------------------------------|
b---------------------------------------------------------------------|
g----------------------()--------------------------------------------|
d-----------------------5b~~------------------------------------------|
a---7-5-7-5~~~~-5-7-5-7------7~~---7-5-7-5~~~~-5-7-5------7~~---------|
E----------------------------------------------------7-5b-------------|

()
lick 1() 1st time lick 2 () 3rd time


e-17b17r-17-15---15b- -15brbrb--------------15p12---12--------------------------------------------|
b-------------17----- --------12--15b-r--15------15---15-12-15p12----12-----------------------15b-|
g-------------------- --------------------------------------------14---14-12-14p13p12-------------|
d-------------------- ---------------------------------------------------------------14p13p12-----|
a-------------------- ----------------------------------------------------------------------------|
E-------------------- ----------------------------------------------------------------------------|

Then the verse:


e--------------------------------------------------------------------------|
b--------------------------------------------------------------------------|
g------------------------------------------------4---------6---------------|
d------------------------------------------------5---------7---------------|
a-------------------------------5~~--------------5---------7---------------|
E--7-777--7-777--etc--------777--------------------------------------------|
p.m.--------------------------------------------------------------------|

Kickin’ down the devils door cheap thrills baby I need some more YEAH


e--------------------------------------------------------------------------|
b--------------------------------------------------------------------------|
g--------------------------------4----------6------------------------------|
d----------------------5-------5---5------7---7----------------------------|
a-------5tr(7)-----5h7-5----/5---------/7----------------------------------|
E--7-7---------7-7---------------------------------------------------------|

p.m-| p.m-|
City on fire becoming me let’s hurry lover and fly together

. . pick these two upwards


e---------6--6--6------------------------------------------------------------|
b---------6--6--6------------------------------------------------------------|
g--4------5--5--5-----------------------4------------6-----------------------|
d--5------------------------------------5------------7-----------------------|
a--5--5-7------------------------5------5------7-----7-----------------------|
E----------------------------------------------------------------------------|

majestic high soaring now babylon bares her breast again


e-------------------------------------------------------|
b-------------------------------------------------------|
g---4--5--4------------------------------4-/-7----------|
d-------------etc---------------------------------------|pickslide
a---2--3--2------------------------------2-/-5----------|
E-------------------------------------------------------|

time’s like quick sand soon again standing naked in wonderland

chorus:revert to riff 1 but without playing the licks

second verse: play something like the first verse but with some variations

Tear the petals from this sweet narcissus
crumbles gently in the palm of my hand
[(1)]what once was inviting is dull and blinding
[(2)]once magnificent has sli[(3)]pped away
[(4)]serpent in my belly stomach crawling now
[(5)]wipe the sweat from my [(6)]furrowed brow

[(1)] [(2)] [(3)] [(4)] [(5)] [(6)]


e----------------------------------------------------------------|
b----------------------------------------------------------------|
g----7h9~~~---9p7~~----6~~---12p9~~---9-/-(14)~~---12-/-(11)~~---|
d----------------------------------------------------------------|
a----------------------------------------------------------------|
E----------------------------------------------------------------|

“time’s like quick sand…” bit and then:

pick slide
2nd chorus: riff1

with these licks:


|--2x--------------|
e--17b-15----15b--------------------------------------------|
b---------17--------------------------15b-12tr(15)----------|then play lick 2 from intro
g--------------------14br-----12tr(14)------------12tr(14)--|
d--------------------prebend--------------------------------|
a-----------------------------------------------------------|
E-----------------------------------------------------------|
|---x4---------------------|
e--15brbrbr----------------------------17-17-------------|
b-----------12-15br-15~~-------12/(15)-------------------|
g--------------------------------------------------------|
d--------------------------------------------------------|
a--------------------------------------------------------|
E--------------------------------------------------------|
|---several times--| |-several times------|
e--17br-17br-17br-17br--17p15----15b------------15b--------|
b-----------------------------17-------17-17-17------------|
g--------------------------------------these 3 very quick--|
d----------------------------------------------------------|
a----------------------------------------------------------|
E----------------------------------------------------------|

Then intro again:at the end of it there this little extra

you know the sound [(1)]that breaks down your doors
are you listening to me [(2)]now
[(3)]the sound of a mystifying beat combo
that’s gonna take you higher

(1) (2) (3) slow it down as it builds


e-------------------------------------.---.----------------------|
b-------------------------------------15-15----------------------|
g--14----------14------------14----14--------14~~-----12tr(14)---|
d-----17-16-17----17/(19)~~-----17-------------------------------|
a----------------------------------------------------------------|
E----------------------------------------------------------------|
p.m-----| p.m.-----------------------------|

then chorus and riff1 till the end with an adlib solo in E

To play the most songs, including Wonderland by The Cult by ukulele, the most important basic ukulele chords to learn are C chord, D chord, G chord, and Em chord.
These set you up to play a many of songs, and each of them is easy to learn.

If you are looking for Big Neon Glitter ukulele chords, you’ve come to the best place.
You can play versatile instrument Big Neon Glitter using ukulele or guitar.
This song by The Cult can also be played by that instruments.
=

Big Neon Glitter chords has rhythm and included in Love (1985) album.
You can also get other musical style, including jazz ukulele chords, country music ukulele chords, pop ukulele chords, world music ukulele chords, and rock ukulele chords here.

Big Neon Glitter by The Cult Ukulele Chords

Intro:


e|---------------------------------------------------|
B|---------------------------------------------------|
G|---------------7-7---------------------------------|12X
D|---------7-7---------------------------------------|
A|---5-5-5-----5-------------------------------------|
E|---------------------------------------------------|

Riff 1:
c/d D F C


e|------------------------------|
B|------------------------------|
G|---5/7---7-7-7---10---5-------|Guitar 1
D|---5/7---7-7-7----8---5-------|
A|---3/5---5-5-5----8---3-------|
E|------------------------------|

Riff 2:


e|---------------------------------------------|
B|---------------------------------------------|
G|-----------------------------------------7---|
D|---7--5--7-----7--5--7-----7--5'-7-----7---7-|2x guitar2 junto com guitar1
A|-5----------5-----------5-----------5--------| (após o slide do riff 1)
E|---------------------------------------------|

Riff 3:


e|--------------------------------|
B|-----10-8-10--------------------|6X
G|---7----------------------------|
D|--------------------------------|
A|---------------------------------
E|--------------------------------|

final da intr.


e|--------------------------------|
B|-----10-8-10---10---------------|
G|---7--------------8-------------|
D|--------------------7-----------|
A|---------------------------------
E|--------------------------------|

Oh, drag me back, and drag me back
And drag me back, drag me back, drag me back
Through the revolution, without solution
And the walls get taller
While ye get smaller
While we get smaller
The fear is getting taller

Junto com Riff2

A big neon glitter pushes onto you, oh baby
Sex from the hip at the crack of a whip, oh yeah
The wall gets taller while ye get smaller, yeah
Push against the big neon glitter, pushes onto you
None may indeed go out

Oh, drag me[C/D] back, drag me back
And drag me back, drag me back, drag me back
Through the revolution, without solution
And the wall gets taller
While ye get smaller
While ye get smaller
?.


e|--------------------------------|
B|-----10-8-10--------------------|6X
G|---7----------------------------|
D|--------------------------------|
A|---------------------------------
E|--------------------------------|
e|-------------------10----------10----------10----|
B|-----10-8-10----10----10----10----10----10----10-|
G|---7----------7-----------7-----------7----------|
D|--------------------------------------------------|
A|-------------------------------------------
E|------------------------------------------|

Intr.

A big neon
A big neon
A big neon glitter Riff2
A big neon glitter


e|--------------------------------|
B|-----10-8-10--------------------|7X
G|---7----------------------------|
D|--------------------------------|
A|---------------------------------
E|--------------------------------|
e|--------------------------------|
B|---10-8-6--------------------|
G|----------6-7--------------------|
D|--------------------------------|
A|---------------------------------
E|--------------------------------|

A big neon
A big neon
A big neon glitter
A big neon glitter
A big neon glitter

To play the this songs, including Big Neon Glitter by The Cult by ukulele, the most crucial basic ukulele chords to learn are C chord, D chord, G chord, and Em chord.
These set you up to play a a lot of songs, and each of them is easy to learn.

If you are looking for Wonderland ukulele chords, you’ve visit to the right place.
You can play versatile instrument Wonderland using ukulele or guitar.
This song by The Cult can also be played by that instruments.
=

Wonderland chords has rhythm and included in Ceremony (1991) album.
You can also find other musical genres, including jazz ukulele chords, country music ukulele chords, pop ukulele chords, world music ukulele chords, and rock ukulele chords here.

Wonderland by The Cult Ukulele Chords


tune guitar 1/2 step down (Eb Ab Db Gb Bb Eb)

intro


e--------------------------------------------------------------------|
b----2~~--5~~--7~~-/--14~~---2~~--/9--5p4h5--------------------------|
g-------------------------------------------5--3--5-5/(7)~~~~--------|
d--------------------------------------------------------------------|
a--------------------------------------------------------------------|
E--------------------------------------------------------------------|

Heavy pick slide Then:

Riff 1 x4


e---------------------------------------------------------------------|
b---------------------------------------------------------------------|
g----------------------()--------------------------------------------|
d-----------------------5b~~------------------------------------------|
a---7-5-7-5~~~~-5-7-5-7------7~~---7-5-7-5~~~~-5-7-5------7~~---------|
E----------------------------------------------------7-5b-------------|

()
lick 1() 1st time lick 2 () 3rd time


e-17b17r-17-15---15b- -15brbrb--------------15p12---12--------------------------------------------|
b-------------17----- --------12--15b-r--15------15---15-12-15p12----12-----------------------15b-|
g-------------------- --------------------------------------------14---14-12-14p13p12-------------|
d-------------------- ---------------------------------------------------------------14p13p12-----|
a-------------------- ----------------------------------------------------------------------------|
E-------------------- ----------------------------------------------------------------------------|

Then the verse:


e--------------------------------------------------------------------------|
b--------------------------------------------------------------------------|
g------------------------------------------------4---------6---------------|
d------------------------------------------------5---------7---------------|
a-------------------------------5~~--------------5---------7---------------|
E--7-777--7-777--etc--------777--------------------------------------------|
p.m.--------------------------------------------------------------------|

Kickin’ down the devils door cheap thrills baby I need some more YEAH


e--------------------------------------------------------------------------|
b--------------------------------------------------------------------------|
g--------------------------------4----------6------------------------------|
d----------------------5-------5---5------7---7----------------------------|
a-------5tr(7)-----5h7-5----/5---------/7----------------------------------|
E--7-7---------7-7---------------------------------------------------------|

p.m-| p.m-|
City on fire becoming me let’s hurry lover and fly together

. . pick these two upwards


e---------6--6--6------------------------------------------------------------|
b---------6--6--6------------------------------------------------------------|
g--4------5--5--5-----------------------4------------6-----------------------|
d--5------------------------------------5------------7-----------------------|
a--5--5-7------------------------5------5------7-----7-----------------------|
E----------------------------------------------------------------------------|

majestic high soaring now babylon bares her breast again


e-------------------------------------------------------|
b-------------------------------------------------------|
g---4--5--4------------------------------4-/-7----------|
d-------------etc---------------------------------------|pickslide
a---2--3--2------------------------------2-/-5----------|
E-------------------------------------------------------|

time’s like quick sand soon again standing naked in wonderland

chorus:revert to riff 1 but without playing the licks

second verse: play something like the first verse but with some variations

Tear the petals from this sweet narcissus
crumbles gently in the palm of my hand
[(1)]what once was inviting is dull and blinding
[(2)]once magnificent has sli[(3)]pped away
[(4)]serpent in my belly stomach crawling now
[(5)]wipe the sweat from my [(6)]furrowed brow

[(1)] [(2)] [(3)] [(4)] [(5)] [(6)]


e----------------------------------------------------------------|
b----------------------------------------------------------------|
g----7h9~~~---9p7~~----6~~---12p9~~---9-/-(14)~~---12-/-(11)~~---|
d----------------------------------------------------------------|
a----------------------------------------------------------------|
E----------------------------------------------------------------|

“time’s like quick sand…” bit and then:

pick slide
2nd chorus: riff1

with these licks:


|--2x--------------|
e--17b-15----15b--------------------------------------------|
b---------17--------------------------15b-12tr(15)----------|then play lick 2 from intro
g--------------------14br-----12tr(14)------------12tr(14)--|
d--------------------prebend--------------------------------|
a-----------------------------------------------------------|
E-----------------------------------------------------------|
|---x4---------------------|
e--15brbrbr----------------------------17-17-------------|
b-----------12-15br-15~~-------12/(15)-------------------|
g--------------------------------------------------------|
d--------------------------------------------------------|
a--------------------------------------------------------|
E--------------------------------------------------------|
|---several times--| |-several times------|
e--17br-17br-17br-17br--17p15----15b------------15b--------|
b-----------------------------17-------17-17-17------------|
g--------------------------------------these 3 very quick--|
d----------------------------------------------------------|
a----------------------------------------------------------|
E----------------------------------------------------------|

Then intro again:at the end of it there this little extra

you know the sound [(1)]that breaks down your doors
are you listening to me [(2)]now
[(3)]the sound of a mystifying beat combo
that’s gonna take you higher

(1) (2) (3) slow it down as it builds


e-------------------------------------.---.----------------------|
b-------------------------------------15-15----------------------|
g--14----------14------------14----14--------14~~-----12tr(14)---|
d-----17-16-17----17/(19)~~-----17-------------------------------|
a----------------------------------------------------------------|
E----------------------------------------------------------------|
p.m-----| p.m.-----------------------------|

then chorus and riff1 till the end with an adlib solo in E

To play the most songs, including Wonderland by The Cult by ukulele, the most important basic ukulele chords to learn are C chord, D chord, G chord, and Em chord.
These set you up to play a many of songs, and each of them is easy to master.

If you are looking for Big Neon Glitter ukulele chords, you’ve visit to the right place.
You can play versatile instrument Big Neon Glitter using ukulele or guitar.
This song by The Cult can also be played by that instruments.
=

Big Neon Glitter chords has rhythm and included in Love (1985) album.
You can also find other musical genres, including jazz ukulele chords, country music ukulele chords, pop ukulele chords, world music ukulele chords, and rock ukulele chords here.

Big Neon Glitter by The Cult Ukulele Chords


Intro:


e|---------------------------------------------------|
B|---------------------------------------------------|
G|---------------7-7---------------------------------|12X
D|---------7-7---------------------------------------|
A|---5-5-5-----5-------------------------------------|
E|---------------------------------------------------|

Riff 1:
c/d D F C


e|------------------------------|
B|------------------------------|
G|---5/7---7-7-7---10---5-------|Guitar 1
D|---5/7---7-7-7----8---5-------|
A|---3/5---5-5-5----8---3-------|
E|------------------------------|

Riff 2:


e|---------------------------------------------|
B|---------------------------------------------|
G|-----------------------------------------7---|
D|---7--5--7-----7--5--7-----7--5'-7-----7---7-|2x guitar2 junto com guitar1
A|-5----------5-----------5-----------5--------| (após o slide do riff 1)
E|---------------------------------------------|

Riff 3:


e|--------------------------------|
B|-----10-8-10--------------------|6X
G|---7----------------------------|
D|--------------------------------|
A|---------------------------------
E|--------------------------------|

final da intr.


e|--------------------------------|
B|-----10-8-10---10---------------|
G|---7--------------8-------------|
D|--------------------7-----------|
A|---------------------------------
E|--------------------------------|

Oh, drag me back, and drag me back
And drag me back, drag me back, drag me back
Through the revolution, without solution
And the walls get taller
While ye get smaller
While we get smaller
The fear is getting taller

Junto com Riff2

A big neon glitter pushes onto you, oh baby
Sex from the hip at the crack of a whip, oh yeah
The wall gets taller while ye get smaller, yeah
Push against the big neon glitter, pushes onto you
None may indeed go out

Oh, drag me[C/D] back, drag me back
And drag me back, drag me back, drag me back
Through the revolution, without solution
And the wall gets taller
While ye get smaller
While ye get smaller
?.


e|--------------------------------|
B|-----10-8-10--------------------|6X
G|---7----------------------------|
D|--------------------------------|
A|---------------------------------
E|--------------------------------|
e|-------------------10----------10----------10----|
B|-----10-8-10----10----10----10----10----10----10-|
G|---7----------7-----------7-----------7----------|
D|--------------------------------------------------|
A|-------------------------------------------
E|------------------------------------------|

Intr.

A big neon
A big neon
A big neon glitter Riff2
A big neon glitter


e|--------------------------------|
B|-----10-8-10--------------------|7X
G|---7----------------------------|
D|--------------------------------|
A|---------------------------------
E|--------------------------------|
e|--------------------------------|
B|---10-8-6--------------------|
G|----------6-7--------------------|
D|--------------------------------|
A|---------------------------------
E|--------------------------------|

A big neon
A big neon
A big neon glitter
A big neon glitter
A big neon glitter

To play the this songs, including Big Neon Glitter by The Cult by ukulele, the most important basic ukulele chords to learn are C chord, D chord, G chord, and Em chord.
These set you up to play a a lot of songs, and each of them is easy to master.

  • 1
  • 2