If you are looking for The Leaving ukulele chords, you already visit to the best site.
You can play versatile instrument The Leaving using ukulele or guitar.
This song by The Feelers can also be played by that instruments.
=

The Leaving chords has rhythm and included in SuperSystem (1998) album.
You can also get another musical genres, including jazz ukulele chords, country music ukulele chords, pop ukulele chords, world music ukulele chords, and rock ukulele chords here.

The Leaving by The Feelers Ukulele Chords


The Leaving by The Feelers

Intro


e|------------------------------|
B|------------------------------|
G|--4------1------4------1------|
D|--4------2------4------2------|
A|--2------2------2------2------|
E|---------0-------------0------|

Main Riff


e|------------------------------|
B|--11--h12---11--h12-----------|
G|--11---11---11---11-----------|
D|--11---11---11---11---9-------|
A|--9----9----9----9----9-------|
E|----------------------7-------|


e|------------------------------|
B|--11--h12---11--h12-----------|
G|--11---11---11---11---1-------|
D|--11---11---11---11---2-------|
A|--9----9----9----9----2-------|
E|----------------------0-------|

Verse


e|------------------| (this is just bass for
B|------------------| a while, then the
G|--2-------5---1---| distorted chords come
D|--2---3---5---2---| in)
A|--0---3---3---2---|
E|------1-------0---|

at about 2:25 a little riff goes B|-8-10-| a few times

just go between the main riff and the verse (the last section is the
verse down one semitone) and thats the leaving!

-|taken from pull the strings – the feelers guitar/bass archive|-

To play the this songs, including The Leaving by The Feelers by ukulele, the most crucial basic ukulele chords to learn are C chord, D chord, G chord, and Em chord.
These set you up to play a many of songs, and each of them is easy to master.

If you are searching for Satellite ukulele chords, you’ve visit to the right site.
You can play versatile instrument Satellite using ukulele or guitar.
This song by The Feelers can also be played by that instruments.
=

Satellite chords has rhythm and included in SuperSystem (1998) album.
You can also find other musical genres, including jazz ukulele chords, country music ukulele chords, pop ukulele chords, world music ukulele chords, and rock ukulele chords here.

Satellite by The Feelers Ukulele Chords


-----------------------------------------------------------------------------

Satellite – The Feelers


-----------------------------------------------------------------------------

Tabbed by: tarawai
Standard Tuning

Satellite Chords

CHORDS:


E|--1-----5-----4-----2-----2--||
B|--2-----5-----6-----2-----4--||
G|--3-----6-----6-----3-----4--||
D|--3-----7-----6-----4-----4--||
A|--1-----7-----4-----4-----2--||
E|--1-----5-----4-----2-----2--||

INTRO (Clean):
Bm A C#…..
Bm A C#…..

VERSE 1(Heavy Distortion):

I was satellite – I was pushing through stars
And I was nebulae – I was faking it with the stars
I was freaking out – To see you there
Now im crying out – Hoping that you might hear

Play INTRO again

VERSE 2(Heavy Distortion):

Hiding in corners - Trying to protect myself from me
Safety in numbers - I’ll run away if you reject me
And i couldn’t feel a thing, I was inebriated
I couldn’t feel a thing, I felt so segregated

LEAD BREAK

To play the most songs, including Satellite by The Feelers by ukulele, the most crucial basic ukulele chords to learn are C chord, D chord, G chord, and Em chord.
These set you up to play a a lot of songs, and each of them is easy to learn.

If you are searching for Communicate ukulele chords, you have visit to the right site.
You can play versatile instrument Communicate using ukulele or guitar.
This song by The Feelers can also be played by that instruments.
=

Communicate chords has rhythm and included in Communicate (2001) album.
You can also get other musical style, including jazz ukulele chords, country music ukulele chords, pop ukulele chords, world music ukulele chords, and rock ukulele chords here.

Communicate by The Feelers Ukulele Chords


Communication – The feelers

Intro
Cmajor Csus2


e-----------------------------------------------------------
B---1--1-1-1--1-1--1-1-----0--0--0--0-0-0--0--0-------------
G---0--0-0-0--0-0--0-0-----0--0--0--0-0-0--0--0-------------
D---2--2-2-2--2-2--2-2-----2--2--2--2-2-2--2--2-------------
A---3--3-3-3--3-3--3-3-----3--3--3--3-3-3--3--3-------------
E-----------------------------------------------------------

Lead over Intro


e-----------8------------8-----------7----------7--------
B--------8-----8-----8----8------8----8------8-----8-----
G----9-------------9----------9------------9-------------
D--------------------------------------------------------
A--------------------------------------------------------
E--------------------------------------------------------

Verse
just bass, based around the intro with occasional segments of the lead

Prechorus
‘cuz everythings gonna be alright’


e--3--3--3--3--3--3--3-3----------------------------------
B--0--0--3--3--3--3--3-3----------------------------------
G--0--0--0--0--0--0--0-0--4-4-4-4-4-4-4-4-----------------
D--0--0--0--0--0--0--0-0--3-3-3-3-3-3-3-3-----------------
A--2--2--2--2--2--2--2-2--2-2-2-2-2-2-2-2-----------------
E--3--3--3--3--3--3--3-3----------------------------------

Chorus


e--1-------------------------3----------------------------
B--1-------------------------0----------------------------
G--2-------------------------0--------x3----then------7---
D--3-------------------------0------------------------7---
A--3-------------------------2------------------------5---
E--1-------------------------3----------------------------

Lead over chorus


e---8--8-8-7---------8-8-10----------------------
B---8--8-8-8-x3-then 8-8-8-----------------------
G------------------------------------------------
D------------------------------------------------
A------------------------------------------------
E------------------------------------------------

Solo


e------------------------------------------------
B--13---12---13--12--13--12--13------------------
G--------------------------------------12~-------
D------------------------------------------------ x3
A------------------------------------------------
E------------------------------------------------
e------------------------------------------------
B------------------------------------------------
G---14------10h12p10---12~-----------------------
D------14----------------------------------------
A------------------------------------------------
E------------------------------------------------

Ending chord


e----0---------------
B----3---------------
G----0---------------
D----2---------------
A----3---------------
E--------------------

Mike Crawford – 2002

dedicated to lucy, the biggest feelers fan on earth(apparently)

To play the most songs, including Communicate by The Feelers by ukulele, the most crucial basic ukulele chords to learn are C chord, D chord, G chord, and Em chord.
These set you up to play a ton of songs, and each of them is easy to master.

If you are looking for Pressure Man ukulele chords, you already come to the right site.
You can play versatile instrument Pressure Man using ukulele or guitar.
This song by The Feelers can also be played by that instruments.
=

Pressure Man chords has rhythm and included in SuperSystem (1998) album.
You can also get another musical genres, including jazz ukulele chords, country music ukulele chords, pop ukulele chords, world music ukulele chords, and rock ukulele chords here.

Pressure Man by The Feelers Ukulele Chords

This song is very easy
its simple just this

verse


e-------------------------------------
B---5-5-5-5-5-5-5-5-5-5-5-5-5-5-5-5---
G--7-7-7-7-7-7-7-7-6-6-6-6-6-6-6-6-----
D-------------------------------------
A-------------------------------------
E-------------------------------------

take the hammer etc etc

chorus
just power chords listen to get the rythm its so easy i cant be bothered


D--7---------------------11-------------
A--5x a whole lot--------9x a whole lot--
E---------------------------------------

and you pressure man or prey do you suffer through the gravity


D-4-----------------------
A-2-x a whole lot---------4---------
E------------------------ 2x a whole lot-------

and you predator or prey do you suffer my reality

next verse repeat as above and chorus
then after the “sometimes they come for me” interlude

which has no guitar but the chorus power chords and some little licks
but this tab is in lamemans term

then this little bit
[D—]


A---0-5-7-0-5-7-0-5-7-0-5-7-0-5-7-0-5-7-x a whole lot--

[E—]

then back to the chorus

To play the this songs, including Pressure Man by The Feelers by ukulele, the most important basic ukulele chords to learn are C chord, D chord, G chord, and Em chord.
These set you up to play a a lot of songs, and each of them is easy to master.