If you are searching for Monkey Trick ukulele chords, you’ve come to the right place.
You can play versatile instrument Monkey Trick using ukulele or guitar.
This song by The Jesus Lizard can also be played by that instruments.
=

Monkey Trick chords has rhythm and included in album.
You can also get other musical genres, including jazz ukulele chords, country music ukulele chords, pop ukulele chords, world music ukulele chords, and rock ukulele chords here.

Monkey Trick by The Jesus Lizard Ukulele Chords


----------------------------------------------------------------------------

Monkey Trick – The Jesus Lizard


----------------------------------------------------------------------------

Tabbed by: Jon

Tuning: Standard

This is easily one of the best songs ever. I’m not sure about all of these notes, Duane doesn’t
exactly play guitar in a traditional manner. Also, some of them are sort of hidden in
mix. But for the most part this tab is accurate.

If a note looks like this (9) that means that it might be there and it might not, I can’t
tell.

Intro


e|--------------------------------------------------------------------------|
B|--------------------------------------------------------------------------|
G|-8-8-8-8-8-8-8-8----------------------------------------------------------|
D|-8-8-8-8-8-8-8-8----------------------------------------------------------|
A|-6-6-6-6-6-6-6-6----------------------------------------------------------|
E|--------------------------------------------------------------------------|
e|------0----------0---------0-----------------0----------------------------|
B|--------4b---------4b--------4b---5br----------4--6/7--------------------|
G|--4h5--------4h5-------4h5--------5br-----4h5-----7/8--------------------|
D|--------------------------------------------------------------------------|
A|--------------------------------------------------------------------------|
E|--------------------------------------------------------------------------|

Verse


e|-3---------------------------3--------------------------------------------|
B|---1h3h4-----1-----------------1h3h4-----1--------------------------------|
G|---------1h3----------3(3)-----------1h3-----0h1-/5-----------------------|
D|---------------3h5h6--6-6------------------3-------3h6(p3)----------------|
A|--------------------------------------------------------------------------|
E|--------------------------------------------------------------------------|
e|-3---------------------------3--------------------------------------------|
B|---1h3h4-----1-----------------1h3h4-----1--------------------------------|
G|---------1h3----------3(3)-----------1h3-----0h1-/5-----7-----------------|
D|---------------3h5h6--6-6------------------3-------3h6--------------------|
A|--------------------------------------------------------------------------|
E|--------------------------------------------------------------------------|

“What are they doing?”


e|--------------------------------------------------------------------------|
B|--------------------------------------------------------------------------|
G|-75-5-5--7-7-7-75-5-5-5--7-7-7-75-5-5-5--7-7-7-75-5-5-5--7------------|
D|-86-6-6--8-8-8-86-6-6-6--8-8-8-86-6-6-6--8-8-8-86-6-6-6--8------------|
A|--------------------------------------------------------------------------|
E|--------------------------------------------------------------------------|
e|--------------------------------------------------------------------------|
B|--------------------------------------------------------------------------|
G|-8-8-8-8-8-8-8-8----------------------------------------------------------|
D|-8-8-8-8-8-8-8-8----------------------------------------------------------|
A|-6-6-6-6-6-6-6-6----------------------------------------------------------|
E|--------------------------------------------------------------------------|

Next Verse


e|--------------------------0-----------------------------------------------|
B|-8--8--8--8--8--8--8--------4b--4br---------------------------------------|
G|-8--8--8--8--8--8--8---4h5------------------------------------------------|
D|-10-10-10-10-10-10-10-----------------------------------------------------|
A|--------------------------------------------------------------------------|
E|--------------------------------------------------------------------------|
e|--------------------------0-----------------------------------------------|
B|-8--8--8--8--8--8--8--------4b--------------------------------------------|
G|-8--8--8--8--8--8--8---4h5------------------------------------------------|
D|-10-10-10-10-10-10-10-----------------------------------------------------|
A|--------------------------------------------------------------------------|
E|--------------------------------------------------------------------------|
e|--------------------------0-----------------------------------------------|
B|-8--8--8--8--8--8--8--------4b----5br-------------------------------------|
G|-8--8--8--8--8--8--8---4h5--------5br-------------------------------------|
D|-10-10-10-10-10-10-10-----------------------------------------------------|
A|--------------------------------------------------------------------------|
E|--------------------------------------------------------------------------|
e|--------------------------0-----------------------------------------------|
B|-8--8--8--8--8--8--8--------4b--------------------------------------------|
G|-8--8--8--8--8--8--8---4h5------------------------------------------------|
D|-10-10-10-10-10-10-10-----------------------------------------------------|
A|--------------------------------------------------------------------------|
E|--------------------------------------------------------------------------|
e|-3---------------------------3--------------------------------------------|
B|---1h3h4-----1-----------------1h3h4-----1--------------------------------|
G|---------1h3----------3(3)-----------1h3-----0h1-/5-----------------------|
D|---------------3h5h6--6-6------------------3-------3h6(p3)----------------|
A|--------------------------------------------------------------------------|
E|--------------------------------------------------------------------------|
e|-3---------------------------3--------------------------------------------|
B|---1h3h4-----1-----------------1h3h4-----1--------------------------------|
G|---------1h3----------3(3)-----------1h3-----0h1-/5-----7-----------------|
D|---------------3h5h6--6-6------------------3-------3h6--------------------|
A|--------------------------------------------------------------------------|
E|--------------------------------------------------------------------------|

“What are they doing?”


e|--------------------------------------------------------------------------|
B|--------------------------------------------------------------------------|
G|-75-5-5--7-7-7-75-5-5-5--7-7-7-75-5-5-5--7-7-7-75-5-5-5--7------------|
D|-86-6-6--8-8-8-86-6-6-6--8-8-8-86-6-6-6--8-8-8-86-6-6-6--8------------|
A|--------------------------------------------------------------------------|
E|--------------------------------------------------------------------------|
e|--------------------------------------------------------------------------|
B|--------------------------------------------------------------------------|
G|-8-8-8-8-8-8-8-8----------------------------------------------------------|
D|-8-8-8-8-8-8-8-8----------------------------------------------------------|
A|-6-6-6-6-6-6-6-6----------------------------------------------------------|
E|--------------------------------------------------------------------------|

“So much has been unknown…”


e|-0----0----0----2-----0----0-----2-----0----------------------------------|
B|-0----1----2----0-----1----2-----0-----0----------------------------------|
G|-0----0----0----0-----0----0-----0-----0----------------------------------|
D|-2----2----2----------2----2-----------2----------------------------------|
A|-2----3----0----------3----0-----------2----------------------------------|
E|-0-------------------------------------0----------------------------------|
e|----0---------------------------------------------------------------------|
B|------4b---4-------------------------------------------------------------|
G|-4h5-------5-------------------------------------------------------------|
D|-----------5-------------------------------------------------------------|
A|--------------------------------------------------------------------------|
E|--------------------------------------------------------------------------|

“A childish joke!”
(One of the following two lines is correct for this next part but I’m pretty sure it’s line #2)


e|--------------------------------------------------------------------------|
B|-13tr-15tr-13tr-12tr-13tr-15tr-8tr-15tr-13tr-12tr-------------------------|
G|-12tr-13tr-12tr-12tr-12tr-13tr-8tr-13tr-12tr-12tr-------------------------|
D|--------------------------------------------------------------------------|
A|--------------------------------------------------------------------------|
E|--------------------------------------------------------------------------|


e|--------------------------------------------------------------------------|
B|-13tr-15tr-13tr-12tr-13tr-15tr-8tr-15tr-13tr-12tr-------------------------|
G|-------------------------------8tr----------------------------------------|
D|-13tr-15tr-13tr-12tr-13tr-15tr-----15tr-13tr-12tr-------------------------|
A|--------------------------------------------------------------------------|
E|--------------------------------------------------------------------------|

“Ow!”


e|--------------------------------------------------------------------------|
B|(0)Hit this note a bunch---------------------------(0)--A bunch more------|
G|-8------and then...---------8-/108--8-/108--------8-----times-----------|
D|-10-------------------------10/1210-10/1210-------10--------------------|
A|--------------------------------------------------------------------------|
E|--------------------------------------------------------------------------|
e|-3---------------------------3--------------------------------------------|
B|---1h3h4-----1-----------------1h3h4-----1--------------------------------|
G|---------1h3----------3(3)-----------1h3-----0h1-/5-----------------------|
D|---------------3h5h6--6-6------------------3-------3h6(p3)----------------|
A|--------------------------------------------------------------------------|
E|--------------------------------------------------------------------------|
e|-3---------------------------3--------------------------------------------|
B|---1h3h4-----1-----------------1h3h4-----1--------------------------------|
G|---------1h3----------3(3)-----------1h3-----0h1-/5-----7-----------------|
D|---------------3h5h6--6-6------------------3-------3h6--------------------|
A|--------------------------------------------------------------------------|
E|--------------------------------------------------------------------------|

“What are they doing?”


e|--------------------------------------------------------------------------|
B|--------------------------------------------------------------------------|
G|-75-5-5--7-7-7-75-5-5-5--7-7-7-75-5-5-5--7-7-7-75-5-5-5--7------------|
D|-86-6-6--8-8-8-86-6-6-6--8-8-8-86-6-6-6--8-8-8-86-6-6-6--8------------|
A|--------------------------------------------------------------------------|
E|--------------------------------------------------------------------------|
e|--------------------------------------------------------------------------|
B|--------------------------------------------------------------------------|
G|-8-8-8-8-8-8-8-8----------------------------------------------------------|
D|-8-8-8-8-8-8-8-8----------------------------------------------------------|
A|-6-6-6-6-6-6-6-6----------------------------------------------------------|
E|--------------------------------------------------------------------------|

| b bend
| r release
| tr tremelo pick
| / slide up
| slide down
| h hammer-on
| p pull-off
| ~ vibrato
| + harmonic
| x Mute note

To play the this songs, including Monkey Trick by The Jesus Lizard by ukulele, the most crucial basic ukulele chords to learn are C chord, D chord, G chord, and Em chord.
These set you up to play a many of songs, and each of them is easy to master.