If you are looking for Stay ukulele chords, you already visit to the best site.
You can play versatile instrument Stay using ukulele or guitar.
This song by The Mary Dream can also be played by that instruments.
=

Stay chords has rhythm and included in Beautiful World album.
You can also find other musical genres, including jazz ukulele chords, country music ukulele chords, pop ukulele chords, world music ukulele chords, and rock ukulele chords here.

Stay by The Mary Dream Ukulele Chords


-------------------------------------------------------------------------------

Stay- The Mary Dream


-------------------------------------------------------------------------------

Tuning: Standard
Electric: Capo 5

VERSE/BRIDGE (Electric)


e|--2--------2--------2--------2--------|
B|-----3--------3--------3--------3-----|
G|--------2--------2--------2---------2-|
D|--------------------------------------|
A|--------------------------------------|
E|--------------------------------------|
e|--------------------------------------|
B|--0--2-----0--2-----0--2-----0--2-----|
G|--------2--------2--------2--------2--|
D|--------------------------------------|
A|--------------------------------------|
E|--------------------------------------|

CHORUS (Electric)


e|--------------------------------------|
B|--------------------------------------|
G|--------2-----------2--------2------2-|
D|-----0----------0---------0-------0---|
A|--0----------0---------0--------0-----|
E|--------------------------------------|
e|--5-----------------------------------|
B|----3--2------------------------------|
G|--------------------------------------|
D|--------------------------------------|
A|--------------------------------------|
E|--------------------------------------|

SOLO (Electric)


e|--------------------------------------|
B|-----------------------------------7--|
G|-----/7--6----------/7--6-------------|
D|--4---------79--4---------7--9--4----|
A|--------------------------------------|
E|--------------------------------------|

INTRO
G Em Am x4

VERSE I
I’m stripped and I’m raw

I’ve got nothing more

You’re going away
I wish you could stay

BRIDGE
Now I’m down to the core

And I’ve got nothing more

And I wish you could stay

But you??re going away

PRECHORUS x 4
I wish you could stay232;
Stay x2

CHORUS
I wish you could stay

Stay x2
I wish it could be
I wish it could be
I wish it could be x 2

VERSE II
I’m stripped and I’m raw

I’ve got nothing more

You’re going away

I wish you could stay

BRIDGE
Now I’m down to the core

Just like I was before

And I wish you could stay

But you’re going away

PRECHORUS x4
I wish you could stay
Stay x 2

CHORUS
I wish you could stay
Stay x2
I wish it could be x3
I wish it could be x2

INTERLUDE

G Em x 4
PRECHORUS x 4

I wish you could stay
Stay x 2

CHORUS
I wish you could stay
C D

Stay x2

I wish it could be x4

End on G

To play the most songs, including Stay by The Mary Dream by ukulele, the most important basic ukulele chords to learn are C chord, D chord, G chord, and Em chord.
These set you up to play a ton of songs, and each of them is easy to master.

If you are searching for Beautiful World ukulele chords, you have visit to the right place.
You can play versatile instrument Beautiful World using ukulele or guitar.
This song by The Mary Dream can also be played by that instruments.
=

Beautiful World chords has rhythm and included in Beautiful World album.
You can also find another musical genres, including jazz ukulele chords, country music ukulele chords, pop ukulele chords, world music ukulele chords, and rock ukulele chords here.

Beautiful World by The Mary Dream Ukulele Chords


----------------------------------------------------------------------------
----------------------------------------------------------------------------

INTRO/VERSE


e|----------0---4------0-----------12----|
B|--2-----2--------2--------9-10-9-------|
G|---------------------------------------|
D|---------------------------------------|
A|---------------------------------------|
E|---------------------------------------|

PRE CHORUS


e|-----10-------------------------------|
B|-------------------------------------|
G|--11----9-----------------------------|
D|--------------------------------------|
A|--------------------------------------|
E|--------------------------------------|

BRIDGE


e|--------------------------------------|
B|--------------------------------------|
G|--11---1517----11'-1517/5-----------|
D|--------------------------------------|
A|--9----1215----9---1215/3-----------|
E|--------------------------------------|
e|--------------------------------------|
B|--------------------------------------|
G|--11---1517----11'-1517-------------|
D|--------------------------------------|
A|--9----1215----9---1215-------------|
E|--------------------------------------|
e|--------------------------------------------|
B|--------------------------------------------|
G|--10'10'10-10'105-5--5-10-10-10-10-105-5-5|
D|--------------------------------------------|
A|--8--8--8'-8--8-3-3-3--8--8--8--8'-83'3-3-|
E|--------------------------------------------|
e|--------------------------------------|
B|--------------------------------------|
G|--9--9--9--9'-9--9--------------------|
D|--------------------------------------|
A|--7--7'-7--7--7--7--------------------|
E|--------------------------------------|

INTRO (2nd Acoustic Guitar Plays G Capo 4)
VERSE
I know that there’s no such thing as no

I know there’s a million answers to every question

I know all you want for me is good

But I can’t remember what I should

PRE- CHORUS
And it’s all good
And it’s right in front of me

It’s not so bad,
it goes as far as I can see

CHORUS
It’s a beautiful world

Despite what you’ve heard

It’s a beautiful world

VERSE II
Today as I walked around this place

I looked and in everything I saw your face

You’re here right beside me every step

You laugh ’cause I haven’t got it yet

PRE CHORUS
But it’s all good
and it??s right in front of me
It’s not so bad,

it goes as far as I can see

CHORUS
It’s a beautiful world

Despite what you’ve heard

It’s a beautiful world

It’s a beautiful place

Past the noise and the haste

It’s a beautiful world

BRIDGE
Every blade of grass

Reminds me of how vast

Everything you make, it moves me

Every day that passes

Is better than the last


Everything you make, it moves me

PRECHORUS
And it’s all good
and it’s right in front of me

It’s not so bad,
it goes as far as I can see

CHORUS
It’s a beautiful world

Despite what you’ve heard

It’s a beautiful world
It’s a beautiful place

If you get past the hate

It’s a beautiful world

OUTRO
But if only you were here

To play the most songs, including Beautiful World by The Mary Dream by ukulele, the most important basic ukulele chords to learn are C chord, D chord, G chord, and Em chord.
These set you up to play a a lot of songs, and each of them is easy to learn.

If you are searching for Stay ukulele chords, you already come to the right site.
You can play versatile instrument Stay using ukulele or guitar.
This song by The Mary Dream can also be played by that instruments.
=

Stay chords has rhythm and included in Beautiful World album.
You can also find another musical style, including jazz ukulele chords, country music ukulele chords, pop ukulele chords, world music ukulele chords, and rock ukulele chords here.

Stay by The Mary Dream Ukulele Chords


-------------------------------------------------------------------------------

Stay- The Mary Dream


-------------------------------------------------------------------------------

Tuning: Standard
Electric: Capo 5

VERSE/BRIDGE (Electric)


e|--2--------2--------2--------2--------|
B|-----3--------3--------3--------3-----|
G|--------2--------2--------2---------2-|
D|--------------------------------------|
A|--------------------------------------|
E|--------------------------------------|
e|--------------------------------------|
B|--0--2-----0--2-----0--2-----0--2-----|
G|--------2--------2--------2--------2--|
D|--------------------------------------|
A|--------------------------------------|
E|--------------------------------------|

CHORUS (Electric)


e|--------------------------------------|
B|--------------------------------------|
G|--------2-----------2--------2------2-|
D|-----0----------0---------0-------0---|
A|--0----------0---------0--------0-----|
E|--------------------------------------|
e|--5-----------------------------------|
B|----3--2------------------------------|
G|--------------------------------------|
D|--------------------------------------|
A|--------------------------------------|
E|--------------------------------------|

SOLO (Electric)


e|--------------------------------------|
B|-----------------------------------7--|
G|-----/7--6----------/7--6-------------|
D|--4---------79--4---------7--9--4----|
A|--------------------------------------|
E|--------------------------------------|

INTRO
G Em Am x4

VERSE I
I’m stripped and I’m raw

I’ve got nothing more

You’re going away
I wish you could stay

BRIDGE
Now I’m down to the core

And I’ve got nothing more

And I wish you could stay

But you??re going away

PRECHORUS x 4
I wish you could stay232;
Stay x2

CHORUS
I wish you could stay

Stay x2
I wish it could be
I wish it could be
I wish it could be x 2

VERSE II
I’m stripped and I’m raw

I’ve got nothing more

You’re going away

I wish you could stay

BRIDGE
Now I’m down to the core

Just like I was before

And I wish you could stay

But you’re going away

PRECHORUS x4
I wish you could stay
Stay x 2

CHORUS
I wish you could stay
Stay x2
I wish it could be x3
I wish it could be x2

INTERLUDE

G Em x 4
PRECHORUS x 4

I wish you could stay
Stay x 2

CHORUS
I wish you could stay
C D

Stay x2

I wish it could be x4

End on G

To play the this songs, including Stay by The Mary Dream by ukulele, the most important basic ukulele chords to learn are C chord, D chord, G chord, and Em chord.
These set you up to play a a lot of songs, and each of them is easy to master.

If you are looking for All My Life ukulele chords, you’ve visit to the right place.
You can play versatile instrument All My Life using ukulele or guitar.
This song by The Mary Dream can also be played by that instruments.
=

All My Life chords has rhythm and included in Beautiful World album.
You can also find another musical genres, including jazz ukulele chords, country music ukulele chords, pop ukulele chords, world music ukulele chords, and rock ukulele chords here.

All My Life by The Mary Dream Ukulele Chords

G/D (Acoustic)


e |--------------------2-------------2----------2---------------|
B |---------------3-------3-------------3---------3-------------|
G |----------2---------------2--------------2---------2---------|
D |-------------------------------------------------------------|
A |-------------------------------------------------------------|
E |--3----------------------------------------------------------|


e |--------------------2-------------2----------2---------------|
B |---------------3-------3-------------3---------3-------------|
G |----------2---------------2--------------2---------2---------|
D |-------------------------------------------------------------|
A |-------------------------------------------------------------|
E |--0----------------------------------------------------------|

Csus (Acoustic)


e |--------------------0-------------0----------0---------------|
B |---------------3-------3-------------3---------3-------------|
G |--------------------------0--------------0---------0---------|
D |------2------------------------------------------------------|
A |---3---------------------------------------------------------|
E |-------------------------------------------------------------|

VERSE I (Electric)


e|-----7~--14-14-14-14----7~-10-10-10-10-10?1214-12-|
B|--7~-----------------7~--------------------------13|
G|---------------------------------------------------|
D|---------------------------------------------------|
A|---------------------------------------------------|
E|---------------------------------------------------|

VERSE II (Electric)


e|-14--10-10-10-10-1012--12?1214-14-14-14-1412-1214-12|
B|-----7~-------------------------------------------------|
G|--------------------------------------------------------|
D|--------------------------------------------------------|
A|--------------------------------------------------------|
E|--------------------------------------------------------|

SOLO


e|-----14---14--------15----15--------------|
B|------------------------------------------|
G|--14---14---14?1416---16----16-----------|
D|------------------------------------------|
A|------------------------------------------|
E|------------------------------------------|
e|------14-----------14----------14---------14----|
B|----------15-----------15----------15---------15|
G|--14------?----14----------14----------14-------|
D|------------------------------------------------|
A|------------------------------------------------|
E|------------------------------------------------|
e|-----14---14--------15----15--------------|
B|------------------------------------------|
G|--14---14---14?1416---16----16-----------|
D|------------------------------------------|
A|------------------------------------------|
E|------------------------------------------|
e|-----15---15------15---15-----------------|
B|------------------------------------------|
G|--16---16---?--16---16--------------------|
D|------------------------------------------|
A|------------------------------------------|
E|------------------------------------------|

INTRO
[G/D] [G/D]

VERSE I

[G/D]All my life[G/D]

Is not enough

[G/D]All my life[G/D]

Is not enough
Is not enough
Is [G/D]not Enough[G/D]
Time

CHORUS
Time with you
Time with you
Time with you
Time with you
Is not enough
Is not enough


VERSE II

[G/D]All my life[G/D]
Is not enough
[G/D]All my life[G/D]
Is not enough
Is not enough
Is [G/D]not gnough[G/D]
Time

CHORUS
Time with you
Time with you
Time with you
Time with you
Is not enough
Is not enough

INTERLUDE


Time

CHORUS/OUTRO
Time with you
Time with you
Time with you
Time with you
Is not enough
Is not enough
Time
Time
[G/D]Time

To play the most songs, including All My Life by The Mary Dream by ukulele, the most crucial basic ukulele chords to learn are C chord, D chord, G chord, and Em chord.
These set you up to play a ton of songs, and each of them is easy to learn.