If you are searching for Right Here for You ukulele chords, you already visit to the best site.
You can play versatile instrument Right Here for You using ukulele or guitar.
This song by The Native Sibling can also be played by that instruments.
=

Right Here for You chords has rhythm and included in album.
You can also get another musical genres, including jazz ukulele chords, country music ukulele chords, pop ukulele chords, world music ukulele chords, and rock ukulele chords here.

Right Here for You by The Native Sibling Ukulele Chords

Tuning: EADGBe
Capo 6

Chords
[C/B]


e|-0--3--0-----0---0---0-|
B|-0--0--1--3--1---1---3-|
G|-0--0--0--0--0---0---0-|
D|-2--0--2--4--0---2---2-|
A|-2--2--3--5--2---0---2-|
E|-0--3-----5----------0-|

Intro


e|------------------|------------------|--------------------|-----|
B|------------------|------------------|--------------------|-3---|
G|------------------|---------------0--|-------------0------|-0---| x2
D|---------0h2p0----|---------0h2p0----|-------0h2/4---4p0--|-4---|
A|-------2----------|-------2----------|--------------------|-5---|
E|-0----------------|-3----------------|-0------------------|-5---|

| 1 + 2 + 3 + 4 + | 1 + 2 + 3 + 4 + | 1 + 2 + a 3 + 4 + | 1___|

Verse 1 and 2


e|------------------|------------------|
B|-----0-------1----|-----0-------0----|
G|-----0-------0----|-----0-------0----|
D|-----2-------2----|-----0-------0----| x4
A|-----2---3---3----|-----2-------2----|
E|-0---0------------|-3---3-----3-3----|

| 1 + 2 + 3 + 4 + | 1 + 2 + 3 + 4 + |


e|------------------|------------------|--------------------|-----|
B|-----0-------1----|-----0-------0----|-----0--------------|-3---|
G|-----0-------0----|-----0-------0----|-----0-------0------|-0---|
D|-----2-------2----|-----0-------0----|-----2-0h2/4---4p0--|-4---|
A|-----2---3---3----|-----2-------2----|-----2--------------|-5---|
E|-0---0------------|-3---3-----3-3----|-0---0--------------|-5---|

| 1 + 2 + 3 + 4 + | 1 + 2 + 3 + 4 + | 1 + 2 + a 3 + 4 + | 1___|

Chorus 1


e|------------------|---------------------|------------------|---------------------|
B|-----1-------0----|-----3-------0-------|-----1-------0----|-----3-------0-------|
G|-----0-------0----|-----0-------0-------|-----0-------0----|-----0-------0-------|
D|-----2-------0----|-----4-------2-0h2p0-|-----2-------0----|-----4-------2-0h2---|
A|-3---3-------2----|-5---5-------2-------|-3---3-------2----|-5---5-------2-------|
E|---------3---3----|-----5---0---0-------|---------3---3----|-----5---0---0-------|

| 1 + 2 + 3 + 4 + | 1 + 2 + 3 + a 4 e + | 1 + 2 + 3 + 4 + | 1 + 2 + 3 + a 4 e + |

[C/B]


e|------------------|---------------------|-0-------0--------|------------------|
B|-----1-------0----|-----3-------0-------|-1-------1--------|------------------|
G|-----0-------0----|-----0-------0-------|-0-------0--------|-0----------------|
D|-----2-------0----|-----4-------2-------|-2-------0-----2--|---2-0------------|
A|-3---3-------2----|-5---5-------2-------|-3-------2--------|-------2-0---0-2--|
E|---------3---3----|-----5---0---0-0h3---|------------------|-----------3------|

| 1 + 2 + 3 + 4 + | 1 + 2 + 3 + a 4 e + | 1 + 2 + 3 + 4 + | 1 + 2 + 3 + 4 + |

Interlude


e|------------------|------------------|--------------------|-----|
B|-----0------------|-----0------------|--------------------|-3---|
G|-----0------------|-----0---------0--|-------------0------|-0---|
D|-----2---0h2p0----|-----0---0h2p0----|-------0h2/4---4p0--|-4---|
A|-2---2-2----------|-2---2-2----------|--------------------|-5---|
E|-0---0-0----------|-3---3------------|-0------------------|-5---|

| 1 + 2 + 3 + 4 + | 1 + 2 + 3 + 4 + | 1 + 2 + a 3 + 4 + | 1___|

Verse 2 (see Verse 1)

Chorus 2


e|------------------|-----------------------|------------------|-----------------------|
B|-----1-------0----|-----3-------0---------|-----1-------0----|-----3-------0---------|
G|-----0-------0----|-----0-------0---------|-----0-------0----|-----0-------0---------|
D|-----2-------0----|-----4-------2-0h2-----|-----2-------0----|-----4-------2---------|
A|-3---3-------2----|-5---5-------2-----0h2-|-3---3-------2----|-5---5-------2-----2p0-|
E|---------3---3----|-----5---0---0---------|---------3---3----|-----5---0---0-3p0-----|

| 1 + 2 + 3 + 4 + | 1 + 2 + 3 + a 4 e + a | 1 + 2 + 3 + 4 + | 1 + 2 + 3 + a 4 e + a |

[C/B]


e|------------------|---------------------|-0-------0--------|-0----------------|
B|-----1-------0----|-----3-------0-------|-1-------1--------|-1----------------|
G|-----0-------0----|-----0-------0-------|-0-------0--------|-0----------------|
D|-----2-------0----|-----4-------2-------|-2-------0--------|-2----------------|
A|-3---3-------2----|-5---5-------2-------|-3-------2--------|-0----------------|
E|---------3---3----|-----5---0---0-0h3---|------------------|------------------|

| 1 + 2 + 3 + 4 + | 1 + 2 + 3 + a 4 e + | 1 + 2 + 3 + 4 + | 1 + 2 + 3 + 4 + |

Bridge


e|------------------|------------------|------------------|-----------------|
B|------------------|------------------|------------------|-----------------|
G|-------0----------|-------0----------|-------------0----|-----------------|
D|-2-------2-0---0--|-2-------2-0------|-----------0---0--|-----------------|x2
A|-------------2----|-------------2-0--|-------0h2--------|-----------------|
E|------------------|------------------|-3----------------|-0---------------|

| 1 + 2 + 3 + 4 + | 1 + 2 + 3 + 4 + | 1 + 2 + 3 + 4 + | 1 + 2 + 3 + 4 + |

Chorus 3


e|------------------|-----------------------|------------------|-----------------------|
B|-----1-------0----|-----3-------0---------|-----1-------0----|-----3-------0---------|
G|-----0-------0----|-----0-------0---------|-----0-------0----|-----0-------0---------|
D|-----2-------0----|-----4-------2-0h2-----|-----2-------0----|-----4-------2---------|
A|-3---3-------2----|-5---5-------2-----0h2-|-3---3-------2----|-5---5-------2-----2p0-|
E|---------3---3----|-----5---0---0---------|---------3---3----|-----5---0---0-3p0-----|

| 1 + 2 + 3 + 4 + | 1 + 2 + 3 + a 4 e + a | 1 + 2 + 3 + 4 + | 1 + 2 + 3 + a 4 e + a |

[C/B]


e|------------------|---------------------|-0-------0--------|------------------|
B|-----1-------0----|-----3-------0-------|-1-------1--------|------------------|
G|-----0-------0----|-----0-------0-------|-0-------0--------|-0----------------|
D|-----2-------0----|-----4-------2-------|-2-------0-----2--|---2-0------------|
A|-3---3-------2----|-5---5-------2-------|-3-------2--------|-------2-0---0-2--|
E|---------3---3----|-----5---0---0-0h3---|------------------|-----------3------|

| 1 + 2 + 3 + 4 + | 1 + 2 + 3 + a 4 e + | 1 + 2 + 3 + 4 + | 1 + 2 + 3 + 4 + |

[Verse 1]
Holding in the sky you’ll see light
Fading in the east
Empty house we’ll pack our bags
Only memories at last
Oh, Oh

[Chorus 1]
Oooh, I’m right here for you
Oooh, there’s nothing left to see
Oooh, I’m right here for you
There’s a strang[C/B]er next to me

[Interlude]

[Verse 2]
The road ahead may have its bends
We’re singing to the ode
There are no plans that lay unchanged
Lead to many of unknowns
knowns

[Chorus 2]
Oooh, I’m right here for you
Oooh, there’s nothing left to see
Oooh, I’m right here for you
And I’m stand[C/B]ing on my knees

[Chorus 3]
Oooh, I’m right here for you
Oooh, there’s nothing left to see
Oooh, I’m right here for you
There’s a strang[C/B]er next to me

To play the this songs, including Right Here for You by The Native Sibling by ukulele, the most crucial basic ukulele chords to learn are C chord, D chord, G chord, and Em chord.
These set you up to play a a lot of songs, and each of them is easy to master.