If you are looking for Race Against Myself ukulele chords, you have visit to the best site.
You can play versatile instrument Race Against Myself using ukulele or guitar.
This song by The Offspring can also be played by that instruments.
=

Race Against Myself chords has rhythm and included in Splinter (2003) album.
You can also get another musical genres, including jazz ukulele chords, country music ukulele chords, pop ukulele chords, world music ukulele chords, and rock ukulele chords here.

Race Against Myself by The Offspring Ukulele Chords


The Offspring-Race Against My Self
Album : Splinter 2003
Track : 5
Tabbed by getch 2003-2004 🙂

Soon gonna tab out the second guitar part,
just play the same notes one octave down or something.

Gtr I (E A D G B E) – Standard Tuning

[4/4] Gtr I

|————————————|
|————————————|
|———7-7-7-7——————–|
|-4-4-4-4-7-7-7-7-7-7-7-7-2-2-2-2—-| intro,chorus
|-4-4-4-4-5-5-5-5-7-7-7-7-2-2-2-2—-|
|-2-2-2-2———5-5-5-5-0-0-0-0—-|

|————————————|
|————————————|
|————————————|
|-4-4-4-4-4-4-4-4-2-2-2-2-2-2-2-2—-| verse palm muted, open it as well
|-4-4-4-4-4-4-4-4-2-2-2-2-2-2-2-2—-|
|-2-2-2-2-2-2-2-2-0-0-0-0-0-0-0-0—-|

|————————————|
|————————————|
|————————————|
|—–4—–4—–4—4-4-5-4-2-4—-| bridge special part
|———————–2-3-2-0-2—-|
|-2-2—2-2—2-2—2—————-|

|————————————|
|————————————|
|————————————|
|—–4—–4—–4—4-4-5———-| bridge special part 2
|———————–2-3———-|
|-2-2—2-2—2-2—2—————-|

To play the most songs, including Race Against Myself by The Offspring by ukulele, the most important basic ukulele chords to learn are C chord, D chord, G chord, and Em chord.
These set you up to play a many of songs, and each of them is easy to master.

If you are searching for No Brakes ukulele chords, you’ve come to the best site.
You can play versatile instrument No Brakes using ukulele or guitar.
This song by The Offspring can also be played by that instruments.
=

No Brakes chords has rhythm and included in Americana (1998) album.
You can also get other musical genres, including jazz ukulele chords, country music ukulele chords, pop ukulele chords, world music ukulele chords, and rock ukulele chords here.

No Brakes by The Offspring Ukulele Chords


[Verse 1]

Lay awake, I don’t give a sht,
if I even ever wake up in the morning.
Down below, there's a pile of sin,
always waiting for a, waiting for a warning.

[Verse 2]

Burned at the stake, inside, I’m blistering,
Not a whisper looking in, you’d never know it.
Miles below, I look up again,
When you snap they say before you never show it.

[Chorus 1]

Someone said it’s alright
Save it now, don’t say it for my sake
Someone said it’s alright
Faster now, you know I got no brakes, no brakes

[Verse 3]

Fuses glow, wounds are festering
’til the wind comes up and takes it to the last pow
Back and forth, staring at the wall
This room’s a cage, I know that something’s gotta give now.

[Verse 4]

Lay awake, I don’t give a sht,
if I even ever wake up in the morning.
Down below, there's a pile of sin,
always waiting for a, waiting for a warning.

[Chorus 2]

Someone said it’s alright.
Save it now, don’t say it for my sake.
Someone said it’s alright.
Faster now, you know I got no brakes, no brakes.

[Chorus 3]

Someone said it’s alright.
Save it now, don’t say it for my sake.
Someone said it’s alright.
Faster now, you know I got no brakes.

[Chorus 5]

Someone said it’s alright.
Save it now, don’t say it for my sake.
Someone said it’s alright.
Faster now, you know I got no brakes.
No brakes. No brakes. No brakes.

To play the most songs, including No Brakes by The Offspring by ukulele, the most crucial basic ukulele chords to learn are C chord, D chord, G chord, and Em chord.
These set you up to play a many of songs, and each of them is easy to master.

If you are looking for Slim Pickens Does the Right Thing and Rides the Bomb to Hell ukulele chords, you’ve come to the right place.
You can play versatile instrument Slim Pickens Does the Right Thing and Rides the Bomb to Hell using ukulele or guitar.
This song by The Offspring can also be played by that instruments.
=

Slim Pickens Does the Right Thing and Rides the Bomb to Hell chords has rhythm and included in Other Songs album.
You can also get other musical style, including jazz ukulele chords, country music ukulele chords, pop ukulele chords, world music ukulele chords, and rock ukulele chords here.

Slim Pickens Does the Right Thing and Rides the Bomb to Hell by The Offspring Ukulele Chords

As recorded by The Offspring
(From the 2012 Album DAYS GO BY)

Transcribed by Whoabot

Words and Music by The Offspring
Arranged by The Offspring

Gtr I (E A D G B E) – ‘Untitled’
Gtr II (E A D G B E) – ‘Untitled’

Intro
Q149
N.C. D5 Bb5 F5 C5
[2/4] Gtr I[4/4]

|——||——————-|———————–|
|——||——————-|———————–|
|——||-7-7-7———/10-|-10-10-10————–|
|——||-7-7-7-0-8-8-0-/10-|-10-10-10-0-10-10-10-0-|
|——||-5-5-5-0-8-8-0–/8-|–8–8–8-0-10-10-10-0-|
|——||———6-6——-|————-8–8–8—|


|——————-|————————||
|——————-|————————||
|-7-7-7———/10-|-10-10-10—————||
|-7-7-7-0-8-8-0-/10-|-10-10-10-0-10-10-10-0–||
|-5-5-5-0-8-8-0–/8-|–8–8–8-0-10-10-10-0–||
|———6-6——-|————-8–8–8—-||

Verse

PM———————————————————

||——————|———————–|—————–|
||o—————–|———————–|—————–|
||——————|———————–|—————–|
||–7-7-7-x——-x-|-10-10-10-x———-x-|-7-7-7-x——-x-|
||o-5-5-5-0-8-8-8-0-|–8–8–8-0-10-10-10-0-|-5-5-5-0-8-8-8-0-|
||———-6-6-6—|————-8–8–8—|———6-6-6—|

1. 2.

——————————-|

|————————-||——————————–||
|————————o||——————————–||
|————————-||——-10-10-5—————–||
|-10-10-10-x————–||-10-10-10-10-5—————–||
|–8–8–8-0-10-10-10-10-o||–8–8–8–8-3–x—x—x——||
|————-8–8–8–8–||——————————–||

horus

|——————-|———————–|
|——————-|———————–|
|-7-7-7———/10-|-10-10-10————–|
|-7-7-7-0-8-8-0-/10-|-10-10-10-0-10-10-10-0-|
|-5-5-5-0-8-8-0–/8-|–8–8–8-0-10-10-10-0-|
|———6-6——-|————-8–8–8—|


||——————–|————————||
||o——————-|———————–o||
||–7-7-7———/10-|-10-10-10—————||
||–7-7-7-0-8-8-0-/10-|-10-10-10-0-10-10-10-0–||
||o-5-5-5-0-8-8-0–/8-|–8–8–8-0-10-10-10-0-o||
||———-6-6——-|————-8–8–8—-||

PM——–| PM—————-

Q E E E E E E E a E E E E E E E

|—————-|—————————-|
|—————-|—————————-|
|—————-|—————————-|
|-8————–|—————————-|
|-8–8-8-8-8-8-8-|-8-(8)s10-10-10-10-10-10-10-|
|-6–6-6-6-6-6-6-|-6-(6)s8–8–8–8–8–8–8-|

—————| PM————|

|—————–|——————————|
|—————–|——————————|
|—————–|——————————|
|—————–|——————————|
|-8-8-8-8-8-8-8-8-|-8-(8)s10-10-10-10-10-10-10—|
|-6-6-6-6-6-6-6-6-|-6-(6)s8–8–8–8–8–8–8—|

PM–|

|—————–|—————————-|
|—————–|—————————-|
|—————–|—————————-|
|—————–|———-10-10-10-10-10-10-|
|-8-8-8-8-8-8-8-8-|-8-(8)s10-10-10-10-10-10-10-|
|-6-6-6-6-6-6-6-6-|-6-(6)s8–8–8–8–8–8–8-|

Q E E Q E E E E E E E E E E

|—————|————————-||
|—————|————————-||
|-7–7-5-7–7-5-|-7-7-7-5-7–x—x—x—-||
|-7–7-5-7–7-5-|-7-7-7-5-7–x—x—x—-||
|-5–5-3-5–5-3-|-5-5-5-3-5—————||
|—————|————————-||

Verse
E E E E Q E E E E E E Q E E

||——————-|———————|
||o——————|———————|
||–7-7-7——–/10-|-10-10-10————|
||–7-7-7-0-8—-/10-|-10-10-10-0-10–10-0-|
||o-5-5-5-0-8–8–/8-|–8–8–8-0-10–10-0-|
||———-6–6—–|————-8—8—|

E E E E Q E E E E E E Q E E

|——————|———————–||
|——————|———————-o||
|-7-7-7——–/10-|-10-10-10————–||
|-7-7-7-0-8—-/10-|-10-10-10-0-10–10-0—||
|-5-5-5-0-8–8–/8-|–8–8–8-0-10–10-0–o||
|———6–6—–|————-8—8—–||

PM———————————————————

||——————|———————–|—————–|
||o—————–|———————–|—————–|
||——————|———————–|—————–|
||–7-7-7-x——-x-|-10-10-10-x———-x-|-7-7-7-x——-x-|
||o-5-5-5-0-8-8-8-0-|–8–8–8-0-10-10-10-0-|-5-5-5-0-8-8-8-0-|
||———-6-6-6—|————-8–8–8—|———6-6-6—|

1. 2.

——————————————|

|————————-||—————————||
|————————o||—————————||
|————————-||—————————||
|-10-10-10-x————–||-10-10-10-x——-10-10—||
|–8–8–8-0-10-10-10-10-o||–8–8–8-0-10-10-10-10—||
|————-8–8–8–8–||————-8–8–8–8—||

Pre-Chorus
W Q Q Q Q E E E E E E E E E E E E E E E E

|———-|————-|—————–|————————-||
|———-|————-|—————–|————————-||
|———-|————-|-3-3-3-3-3-3-3S5-|-5-5-5-5-5–x—x—x—-||
|-5——–|-5–5–5–5–|-3-3-3-3-3-3-3S5-|-5-5-5-5-5–x—-x——-||
|-5——–|-5–5–5–5–|-1-1-1-1-1-1-1S3-|-3-3-3-3-3—————||
|-3——–|-3–3–3–3–|—————–|————————-||

Chorus

|——————-|———————–|
|——————-|———————–|
|-7-7-7———/10-|-10-10-10————–|
|-7-7-7-0-8-8-0-/10-|-10-10-10-0-10-10-10-0-|
|-5-5-5-0-8-8-0–/8-|–8–8–8-0-10-10-10-0-|
|———6-6——-|————-8–8–8—|


||——————–|————————||
||o——————-|———————–o||
||–7-7-7———/10-|-10-10-10—————||
||–7-7-7-0-8-8-0-/10-|-10-10-10-0-10-10-10-0–||
||o-5-5-5-0-8-8-0–/8-|–8–8–8-0-10-10-10-0-o||
||———-6-6——-|————-8–8–8—-||

PM——–| PM—————-

Q E E E E E E E a E E E E E E E

|—————-|—————————-|
|—————-|—————————-|
|—————-|—————————-|
|-8————–|—————————-|
|-8–8-8-8-8-8-8-|-8-(8)s10-10-10-10-10-10-10-|
|-6–6-6-6-6-6-6-|-6-(6)s8–8–8–8–8–8–8-|

—————| PM————|

|—————–|——————————|
|—————–|——————————|
|—————–|——————————|
|—————–|——————————|
|-8-8-8-8-8-8-8-8-|-8-(8)s10-10-10-10-10-10-10—|
|-6-6-6-6-6-6-6-6-|-6-(6)s8–8–8–8–8–8–8—|

PM–|

|—————–|—————————-|
|—————–|—————————-|
|—————–|—————————-|
|—————–|———-10-10-10-10-10-10-|
|-8-8-8-8-8-8-8-8-|-8-(8)s10-10-10-10-10-10-10-|
|-6-6-6-6-6-6-6-6-|-6-(6)s8–8–8–8–8–8–8-|

Q E E Q E E E E E E E E E E

|—————|————————-||
|—————|————————-||
|-7–7-5-7–7-5-|-7-7-7-5-7–x—x—x—-||
|-7–7-5-7–7-5-|-7-7-7-5-7–x—x—x—-||
|-5–5-3-5–5-3-|-5-5-5-3-5—————||
|—————|————————-||

uitar Solo
E E E E Q E E E E E E Q E E

|————————-|———————–|
|————————-|———————–|
|—7–7–7———–/10-|-10-10-10————–|
|—7–7–7–0–8—–/10-|-10-10-10-0—10–10-0-|
|—5–5–5–0–8—8–/8-|–8–8–8-0—10–10-0-|
|—————6—6—–|—————8—8—|

|
| Gtr II
| ~~
| E E E E Q E E E E E E a Q E E

|————————-|———————–|
|————————-|———-8————|
|———————–9-|-10-10-10—7h9—9-9-|
|-/12-12-12-10-12–12—–|———————–|
|————————-|———————–|
|————————-|———————–|

E E E E Q E E E E E E Q E E

|————————-|————————–|
|————————-|————————–|
|—-7-7–7———–/10-|—10-10-10—————|
|—-7-7–7–0–8—–/10-|—10-10-10–0-10–10–0–|
|—-5-5–5–0–8—8–/8-|—-8–8–8–0-10–10–0–|
|—————6—6—–|—————-8—8—–|

|
| a E E E E Q E E a E E E E Q Q

|————————-|————————–|
|————————-|————————–|
|-9h10-9—————-9-|-9h10–9———–14—-|
|——–12-10-12–12—–|———12-10-12———|
|————————-|————————–|
|————————-|————————–|

E E E E Q E E E E E E Q E E

|————————-|———————–|
|————————-|———————–|
|—7–7–7———–/10-|-10-10-10————–|
|—7–7–7–0–8—–/10-|-10-10-10-0—10–10-0-|
|—5–5–5–0–8—8–/8-|–8–8–8-0—10–10-0-|
|—————6—6—–|—————8—8—|

|
| ~~
| E E E E Q E E E E E E a Q E E

|————————-|———————–|
|————————-|———-8————|
|———————–9-|-10-10-10—7h9—9-9-|
|-/12-12-12-10-12–12—–|———————–|
|————————-|———————–|
|————————-|———————–|

E E E E Q E E E E E E Q E E

|————————-|————————-||
|————————-|————————-||
|—-7-7–7———–/10-|—10-10-10————–||
|—-7-7–7–0–8—–/10-|—10-10-10–0-10–10-0–||
|—-5-5–5–0–8—8–/8-|—-8–8–8–0-10–10-0–||
|—————6—6—–|—————-8—8—-||

|
| a E E E E Q E E a E E E E Q Q

|————————-|————————-||
|————————-|————————-||
|-9h10-9—————-9-|-9h10–9—————–||
|——–12-10-12–12—–|———12-10-12–12—-||
|————————-|————————-||
|————————-|————————-||

Pre-Chorus
W Q Q Q Q E E E E E E E E E E E E E E E E

|———-|————-|—————–|————————-||
|———-|————-|—————–|————————-||
|———-|————-|-3-3-3-3-3-3-3S5-|-5-5-5-5-5–x—x—x—-||
|-5——–|-5–5–5–5–|-3-3-3-3-3-3-3S5-|-5-5-5-5-5–x—-x——-||
|-5——–|-5–5–5–5–|-1-1-1-1-1-1-1S3-|-3-3-3-3-3—————||
|-3——–|-3–3–3–3–|—————–|————————-||

Out-Chorus

||——————–|———————–|
||o——————-|———————–|
||–7-7-7———/10-|-10-10-10————–|
||–7-7-7-0-8-8-0-/10-|-10-10-10-0-10-10-10-0-|
||o-5-5-5-0-8-8-0–/8-|–8–8–8-0-10-10-10-0-|
||———-6-6——-|————-8–8–8—|

E E E E E E E E E E E E E E E E 3x

|——————-|————————-||
|——————-|————————o||
|-7-7-7———/10-|-10-10-10—————-||
|-7-7-7-0-8-8-0-/10-|-10-10-10-0-10-10-10-0—||
|-5-5-5-0-8-8-0–/8-|–8–8–8-0-10-10-10-0–o||
|———6-6——-|————-8–8–8—–||

PM——–| PM—————-

Q E E E E E E E a E E E E E E E

|—————-|—————————-|
|—————-|—————————-|
|—————-|—————————-|
|-8————–|—————————-|
|-8–8-8-8-8-8-8-|-8-(8)s10-10-10-10-10-10-10-|
|-6–6-6-6-6-6-6-|-6-(6)s8–8–8–8–8–8–8-|

—————| PM————|

|—————–|——————————|
|—————–|——————————|
|—————–|——————————|
|—————–|——————————|
|-8-8-8-8-8-8-8-8-|-8-(8)s10-10-10-10-10-10-10—|
|-6-6-6-6-6-6-6-6-|-6-(6)s8–8–8–8–8–8–8—|

PM–|

|—————–|—————————-|
|—————–|—————————-|
|—————–|—————————-|
|—————–|———-10-10-10-10-10-10-|
|-8-8-8-8-8-8-8-8-|-8-(8)s10-10-10-10-10-10-10-|
|-6-6-6-6-6-6-6-6-|-6-(6)s8–8–8–8–8–8–8-|


|—————–|—————–|
|—————–|—————–|
|-7-7-7-7-7-7-x-5-|-7-7-7-7-7-7-x-5-|
|-7-7-7-7-7-7-x-5-|-7-7-7-7-7-7-x-5-|
|-5-5-5-5-5-5-x-3-|-5-5-5-5-5-5-x-3-|
|—————–|—————–|

E E E E E E E E E E E E q Q W W

|—————–|—————|———-|——|
|—————–|—————|———-|——|
|-7-7-7-7-7-7-x-5-|-7-7-7-5-7—–|———-|——|
|-7-7-7-7-7-7-x-5-|-7-7-7-5-7—–|———-|——|
|-5-5-5-5-5-5-x-3-|-5-5-5-3-5—–|———-|——|
|—————–|—————|———-|——|

To play the this songs, including Slim Pickens Does the Right Thing and Rides the Bomb to Hell by The Offspring by ukulele, the most important basic ukulele chords to learn are C chord, D chord, G chord, and Em chord.
These set you up to play a ton of songs, and each of them is easy to master.

If you are searching for One Fine Day ukulele chords, you have visit to the best place.
You can play versatile instrument One Fine Day using ukulele or guitar.
This song by The Offspring can also be played by that instruments.
=

One Fine Day chords has rhythm and included in Conspiracy of One (2000) album.
You can also get another musical style, including jazz ukulele chords, country music ukulele chords, pop ukulele chords, world music ukulele chords, and rock ukulele chords here.

One Fine Day by The Offspring Ukulele Chords

The Offspring – One Fine Day

Please note I made this up myself from my head so if you think its wrong
don’t go all nerd crazy and write hundreds of corrections about how bad it is!
And I didn’t have time to fiddle about with the riffs and tabs so the middle
section is just chords. I also didn’t put bits on how to play so just figure it out.

If I had a perfect day,
I would have it start this way
Open up the fridge and have a tall boy yeah!
Then I’d meet up with my friends
Head out to the game again
We don’t even really care who wins, wins
One two three!
Now excitement seems to grow
when we’re hangin’ with the bro’s
When we’re chillin’ and we pound

a case of stroh’s
Now the game is cool to see
you can high five on TV
Count the riot on the one two three
Operation is in sight
And the field is open wide
when you break it then you know you’re still alive

If the cops don’t make you pay
and you make your getaway
Then you know
That's one fine day!

G ‘ D ‘ C ‘ G
G ‘ D ‘ C ‘ G

On that day before we’re through
We could torch a car or two
Then have ourselves another tall boy yeah!
Water hoses and batons
That’s the real game that’s on
I don’t really give a sht who wins, wins
One two three!

?Chorus?

G ‘ D ‘ C ‘ G
G ‘ D ‘ C ‘ G

I believe it’s my god given right
To destroy, everything in my site
Cause it never gets dull, it never gets old
The only thing it gets is more bold
Drinkin’ fightin’ going to the game
In our world it’s a way to stay sane
If you’re asking me
To have it my way, I’d say that’s
One fine day!

–Chorus–

END ON G.

if you need the way to play it listen to it!

To play the most songs, including One Fine Day by The Offspring by ukulele, the most important basic ukulele chords to learn are C chord, D chord, G chord, and Em chord.
These set you up to play a many of songs, and each of them is easy to learn.

If you are searching for I’ll Be Waiting ukulele chords, you already visit to the right place.
You can play versatile instrument I’ll Be Waiting using ukulele or guitar.
This song by The Offspring can also be played by that instruments.
=

I’ll Be Waiting chords has rhythm and included in The Offspring (1989) album.
You can also get another musical style, including jazz ukulele chords, country music ukulele chords, pop ukulele chords, world music ukulele chords, and rock ukulele chords here.

I’ll Be Waiting by The Offspring Ukulele Chords


Subject: TAB: I’ll Be Waiting, by the Offspring
Date: Sun, 3 Dec 1995 21:05:09 GMT

“I’ll Be Waiting” by the Offspring, from “Offspring”

TABBED by Neil James

This is my favorite song off their “new” album, cool lyrics and guitar.
the most part, alot of the lead is right, but there’s some stuff I wasn’
sure about. Didn’t tab out the whole solo during the bassline in the mi
Sorry, for free, this is all you get 🙂

Standard Tuning (E A D G B E)

Lead Intro (Mild Distortion)

KEY:
/ — Slide
h — Hammer On
p — Pull Off
~ — Vibrato
) — Bend

E ———————————————–15h17~-17p15——-
B —————————————–14h17————–15-18-
G -14/12—————————–14h16————————–
D ——-15-12—–12-17p15-12h15/17——————————–
A ————-15—————————————————
E ——————————————————————
E —–)—–)—–)————————————————
B -13/15-13/15-13/15-15p13——————————————
G ————————-14p12————————————
D ——————————-14p12————————–12~-
A ————————————-12—————-12h15——
E —————————————-15—-12h14h15————

Verse

D F(hi) C G

E ———————————————————————-
B ———————————————————————-
G ——–7-7-7-7-7-10-10-10-10-10-10-10-10-10-10———————–
D –7-7-7-7-7-7-7-7-10-10-10-10-10-10-10-10-10-10-10-10-10-5-5-5-5-5-5-5
A –5-5-5-5-5-5-5-5–8–8–8–8–8–8–8-10-10-10-10-10-10-5-5-5-5-5-5-5
E —————————————-8–8–8–8–8–8-3-3-3-3-3-3-3

..Once I had a friend that I could count on times of need are not enou

During the spoken word, strum A -> — and finish it with A# -> —

[-2-][-3-]
[-2-][-3-]
[-2-]-0- [-3-]-1-

— —

Chorus
F(hi) C D A A#

E ———————————————————————-
B ———————————————————————-
G -10-10-10-10-10-10-10-10-10-10————-7-7-7-7-7-7-7————–
D -10-10-10-10-10-10-10-10-10-10-10-10-10-10-7-7-7-7-7-7-7-7-7-7-7-7/8-8
A –8–8–8–8–8–8–8-10-10-10-10-10-10-10-5-5-5-5-5-5-5-7-7-7-7-7/8-8
E ———————–8–8–8–8–8–8–8—————5-5-5-5-5/6-6

Halfway through chorus, play this little fill.

E ————————————–
B -14p12-14p12-14p12-14p12-14p12——–
G ——————————-12h15~-
D ————————————–
A ————————————–
E ————————————–

Then this at the end of the chorus

E –)–)–)–)–)————-12h13~~~~-
B -13-13-13-13-13-13-13p12-12———–
G ————————————–
D ————————————–
A ————————————–
E ————————————–

The Bassline Bridge is something like.

G ———————–
D ———————–
A —0-0—0-0—0-0—–
E -3—–3—–3—–3-0-

And for the solo, improvise something on this scale and it should sound
ok.

———————————-15-17-
———————-13-15-16-17——-
—————-12-14——————-
——-12-13-14————————-
-12-15———————————-
—————————————-

To play the this songs, including I’ll Be Waiting by The Offspring by ukulele, the most crucial basic ukulele chords to learn are C chord, D chord, G chord, and Em chord.
These set you up to play a ton of songs, and each of them is easy to learn.

If you are searching for When You’re in Prison ukulele chords, you already come to the best site.
You can play versatile instrument When You’re in Prison using ukulele or guitar.
This song by The Offspring can also be played by that instruments.
=

When You’re in Prison chords has rhythm and included in Splinter (2003) album.
You can also get other musical style, including jazz ukulele chords, country music ukulele chords, pop ukulele chords, world music ukulele chords, and rock ukulele chords here.

When You’re in Prison by The Offspring Ukulele Chords


-------------------------------------------------------------

The Offspring – When You’re In Prison


-------------------------------------------------------------

Standart Tuning


------------

Chords


------------

[Bb/D]


e|----------------------------------
B|--8---9----6---3-----4----4-------
G|--8---10---7---3-----5----4-------
D|--8---10---8---3-----6----6-------
A|--6---8----8---5-----6----6-------
E|-----------6---------4----4-------
-----------

Intro


-----------


e|-------------------------------
B|-----8-----8------8-----8------
G|-----8-----8------8-----8------
D|-----8-----8------8-----8------
A|-6-------------6---------------
E|-------6-------------6---------
-----------

Verse 1


-----------

[Bb/D]


e|----------------------------------------------------------
B|-----8-----8------9-----------------3-------8-----8-------
G|-----8-----8------10---------7------3-------8-----8-------
D|-----8-----8------10---------8------3-------8-----8-------
A|-6-------------8-------------8---5------6-----------------
E|-------6--------------4-5-6--------------------6----------

[Bb/D]


e|-----------------------------------------------------
B|-----8-----8------9-----------------3-------8--------
G|-----8-----8------10---------7------3-------8--------
D|-----8-----8------10---------8------3-------8--------
A|-6-------------8-------------8---5------6------------
E|-------6--------------4-5-6--------------------6-5---
-----------

Chorus


-----------


e|------------------------------------------------------
B|-------------------------------8-----8------8---------
G|---5------5------4------4------8-----8------8---------
D|---6------6------6------6------8-----8------8---------
A|---6------6------6------6---6------------6------------
E|-4-----4------4------4------------6------------6-5----


e|----------------------------------------------------
B|--------------------------------9-------9-----------
G|---5------5------4------4-------10------10---7------
D|---6------6------6------6-------10------10---8------
A|---6------6------6------6----8-------8-------8------
E|-4-----4------4------4-----------------------6------
e|-----------------
B|-----------------
G|-----------------
D|-10-8------------
A|------11-10-8----
E|-----------------
-----------

Verse 2


-----------

(Same as previous)


-----------

Chorus


-----------

(Same as previous)


-----------

Verse 3


-----------

(Same as previous)


-----------

Outro


-----------

[Bb/D]


e|------------------------------
B|-----------3-----8-----8------
G|----7------3-----8-----8------
D|----8------3-----8-----8------
A|----8---5-----6-----6---------
E|-6----------------------------

[Bb/D]


e|-----------------------------------------------------------------------
B|-----------3----------------------------------8-----8-------8-8-8-8----
G|----7------3------5------5------4------4------8-----8-------8-8-8-8----
D|----8------3------6------6------6------6------8-----8-------8-8-8-8----
A|----8---5---------6------6------6------6---6-----6-----6----6-6-6-6----
E|-6------------4-------4-----4-------4----------------------------------

When you’re in prison don’t turn the other way
Keep your back against the wall
When you’re in prison don’t turn the other way
Do not bend at all

Oh don’t pick up the soap pick up the soap
It’s bad for you

Oh don’t pick up the soap pick up the soap
Someone will be waiting there for you

When you’re in prison be sure to stay awake
Always lie upon your back

When you’re in prison be sure to stay awake
Keep you from attack

Oh don’t be no one’s bch be no one’s bch
It’s bad for you

Oh don’t be no one’s bch be no one’s bch
They won’t help you make it through

When you’re in prison, don’t turn the other way
Follow what I say to do

When you’re in prison don’t turn the other way
You can make it through
You can make it through
You can make it through

To play the this songs, including When You’re in Prison by The Offspring by ukulele, the most important basic ukulele chords to learn are C chord, D chord, G chord, and Em chord.
These set you up to play a many of songs, and each of them is easy to master.

If you are searching for One Fine Day ukulele chords, you already visit to the best place.
You can play versatile instrument One Fine Day using ukulele or guitar.
This song by The Offspring can also be played by that instruments.
=

One Fine Day chords has rhythm and included in Conspiracy of One (2000) album.
You can also find another musical style, including jazz ukulele chords, country music ukulele chords, pop ukulele chords, world music ukulele chords, and rock ukulele chords here.

One Fine Day by The Offspring Ukulele Chords


The Offspring – One Fine Day

Please note I made this up myself from my head so if you think its wrong
don’t go all nerd crazy and write hundreds of corrections about how bad it is!
And I didn’t have time to fiddle about with the riffs and tabs so the middle
section is just chords. I also didn’t put bits on how to play so just figure it out.

If I had a perfect day,
I would have it start this way
Open up the fridge and have a tall boy yeah!
Then I’d meet up with my friends
Head out to the game again
We don’t even really care who wins, wins
One two three!
Now excitement seems to grow
when we’re hangin’ with the bro’s
When we’re chillin’ and we pound

a case of stroh’s
Now the game is cool to see
you can high five on TV
Count the riot on the one two three
Operation is in sight
And the field is open wide
when you break it then you know you’re still alive

If the cops don’t make you pay
and you make your getaway
Then you know
That's one fine day!

G ‘ D ‘ C ‘ G
G ‘ D ‘ C ‘ G

On that day before we’re through
We could torch a car or two
Then have ourselves another tall boy yeah!
Water hoses and batons
That’s the real game that’s on
I don’t really give a sht who wins, wins
One two three!

?Chorus?

G ‘ D ‘ C ‘ G
G ‘ D ‘ C ‘ G

I believe it’s my god given right
To destroy, everything in my site
Cause it never gets dull, it never gets old
The only thing it gets is more bold
Drinkin’ fightin’ going to the game
In our world it’s a way to stay sane
If you’re asking me
To have it my way, I’d say that’s
One fine day!

–Chorus–

END ON G.

if you need the way to play it listen to it!

To play the this songs, including One Fine Day by The Offspring by ukulele, the most crucial basic ukulele chords to learn are C chord, D chord, G chord, and Em chord.
These set you up to play a a lot of songs, and each of them is easy to master.

If you are searching for Race Against Myself ukulele chords, you’ve visit to the right site.
You can play versatile instrument Race Against Myself using ukulele or guitar.
This song by The Offspring can also be played by that instruments.
=

Race Against Myself chords has rhythm and included in Splinter (2003) album.
You can also find other musical genres, including jazz ukulele chords, country music ukulele chords, pop ukulele chords, world music ukulele chords, and rock ukulele chords here.

Race Against Myself by The Offspring Ukulele Chords


The Offspring-Race Against My Self
Album : Splinter 2003
Track : 5
Tabbed by getch 2003-2004 🙂

Soon gonna tab out the second guitar part,
just play the same notes one octave down or something.

Gtr I (E A D G B E) – Standard Tuning

[4/4] Gtr I

|————————————|
|————————————|
|———7-7-7-7——————–|
|-4-4-4-4-7-7-7-7-7-7-7-7-2-2-2-2—-| intro,chorus
|-4-4-4-4-5-5-5-5-7-7-7-7-2-2-2-2—-|
|-2-2-2-2———5-5-5-5-0-0-0-0—-|

|————————————|
|————————————|
|————————————|
|-4-4-4-4-4-4-4-4-2-2-2-2-2-2-2-2—-| verse palm muted, open it as well
|-4-4-4-4-4-4-4-4-2-2-2-2-2-2-2-2—-|
|-2-2-2-2-2-2-2-2-0-0-0-0-0-0-0-0—-|

|————————————|
|————————————|
|————————————|
|—–4—–4—–4—4-4-5-4-2-4—-| bridge special part
|———————–2-3-2-0-2—-|
|-2-2—2-2—2-2—2—————-|

|————————————|
|————————————|
|————————————|
|—–4—–4—–4—4-4-5———-| bridge special part 2
|———————–2-3———-|
|-2-2—2-2—2-2—2—————-|

To play the this songs, including Race Against Myself by The Offspring by ukulele, the most crucial basic ukulele chords to learn are C chord, D chord, G chord, and Em chord.
These set you up to play a ton of songs, and each of them is easy to learn.

If you are searching for The End of the Line ukulele chords, you already come to the right place.
You can play versatile instrument The End of the Line using ukulele or guitar.
This song by The Offspring can also be played by that instruments.
=

The End of the Line chords has rhythm and included in Americana (1998) album.
You can also get other musical genres, including jazz ukulele chords, country music ukulele chords, pop ukulele chords, world music ukulele chords, and rock ukulele chords here.

The End of the Line by The Offspring Ukulele Chords


Year: 1998
Track: 9
Title: The end of the line

A: (Intro)
[+] [+] [+] [+] [+] [+] [+] [+] [+][+][+][+][+][+][+][+]


E -----------------------------------------------------------------
B -----------------------------------------------------------------
G -----------------------------------------------------------------
D -4-444-4---R---------------------4-444-4---R---------------------
A -4-444-4---R---------------------4-444-4---R---------------------
E -2-222-2---R---------------------2-222-2---R---------------------

pm_/ pm_/

[+] [+] [+] [+] [+] [+] [+] [+] [+][+][+][+][+][+][+][+]


E -----------------------------------------------------------------
B -----------------------------------------------------------------
G ---------------------------------9-9---9---9-9-9-6-6---6---6-6-6-
D -4-444-4---R---------------------9-9---9---9-9-9-6-6---6---6-6-6-
A -4-444-4---R---------------------7-7---7---7-7-7-4-4---4---4-4-4-
E -2-222-2---R-----------------------------------------------------

pm_/

[+] [+] [+] [+]


E -----------------
B -----------------
G -6-6---6---6-6-6-
D -6-6---6---6-6-6-
A -4-4---4---4-4-4-
E -----------------

A’: (Verse)
[+] [+] [+] [+] [+] [+] [+] [+] [+][+][+][+][+][+][+][+]


E -----------------------------------------------------------------
B -----------------------------------------------------------------
G -----------------7-7-7-7-------------------------7-7-7-7-9-9-9-9-
D -4-444-4---4-4-4-7-7-7-7-7-7-9-9-4-444-4---4-4-4-7-7-7-7-9-9-9-9-
A -4-444-4---4-4-4-5-5-5-5-7-7-9-9-4-444-4---4-4-4-5-5-5-5-7-7-7-7-
E -2-222-2---2-2-2---------5-5-7-7-2-222-2---2-2-2-----------------

pm_/ pm_______________________/ pm_________________/

[+] [+] [+] [+] [+] [+] [+] [+] [+][+][+][+][+][+][+][+]


E -----------------------------------------------------------------
B -----------------------------------------------------------------
G -----------------7-7-7-7---------9-9---9---9-9-9-6-6---6---6-6-6-
D -4-444-4---4-4-4-7-7-7-7-7-7-9-9-9-9---9---9-9-9-6-6---6---6-6-6-
A -4-444-4---4-4-4-5-5-5-5-7-7-9-9-7-7---7---7-7-7-4-4---4---4-4-4-
E -2-222-2---2-2-2---------5-5-7-7---------------------------------

pm_/ pm_________________/

B:
[+] [+] [+] [+]


E -------------------
B -------------------
G -6-6-6-6-6-6-6-6---
D -6-6-6-6-6-6-6-6-4-
A -4-4-4-4-4-4-4-4-4-
E -----------------2-

C: (Chorus)
[+] [+] [+] [+] [+] [+] [+] [+] [+][+][+][+][+][+][+][+]


E -----------------------------------------------------------------
B -----------------------------------------------------------------
G ---------------------------------9-9---9---9-9-9-----------------
D -4-4---4---4-4-4-7-7---7---7-7-7-9-9---9---9-9-9-9-9---9---9-9-9-
A -4-4---4---4-4-4-7-7---7---7-7-7-7-7---7---7-7-7-9-9---9---9-9-9-
E -2-2---2---2-2-2-5-5---5---5-5-5-----------------7-7---7---7-7-7-

[+] [+] [+] [+] [+] [+] [+] [+] [+][+][+][+][+][+][+][+]


E -----------------------------------------------------------------
B -----------------------------------------------------------------
G ---------------------------------9-9---9---9-9-9-6-6---6---6-6-6-
D -4-4---4---4-4-4-7-7---7---7-7-7-9-9---9---9-9-9-6-6---6---6-6-6-
A -4-4---4---4-4-4-7-7---7---7-7-7-7-7---7---7-7-7-4-4---4---4-4-4-
E -2-2---2---2-2-2-5-5---5---5-5-5---------------------------------

C’: (Break)
[+] [+] [+] [+] [+] [+] [+] [+] [+][+][+][+][+][+][+][+]


E -----------------------------------------------------------------
B -----------------------------------------------------------------
G ---------------------------------9-999-9---9-9-9-----------------
D -4-444-4---4-4-4-7-777-7---7-7-7-9-999-9---9-9-9-9-999-9---9-9-9-
A -4-444-4---4-4-4-7-777-7---7-7-7-7-777-7---7-7-7-9-999-9---9-9-9-
E -2-222-2---2-2-2-5-555-5---5-5-5-----------------7-777-7---7-7-7-

pm_/ pm_/ pm_/ pm_/

[+] [+] [+] [+] [+] [+] [+] [+] [+][+][+][+][+][+][+][+]


E -----------------------------------------------------------------
B -----------------------------------------------------------------
G ---------------------------------9-999-9---9-9-9-6-666-6---6-6-6-
D -4-444-4---4-4-4-7-777-7---7-7-7-9-999-9---9-9-9-6-666-6---6-6-6-
A -4-444-4---4-4-4-7-777-7---7-7-7-7-777-7---7-7-7-4-444-4---4-4-4-
E -2-222-2---2-2-2-5-555-5---5-5-5---------------------------------

pm_/ pm_/ pm_/ pm_/

[+] [+] [+] [+] [+] [+] [+] [+] [+][+][+][+][+][+][+][+]


E -----------------------------------------------------------------
B -----------------------------------------------------------------
G ---------------------------------9-999-9---9-9-9-----------------
D -4-444-4---4-4-4-7-777-7---7-7-7-9-999-9---9-9-9-9-999-9---9-9-9-
A -4-444-4---4-4-4-7-777-7---7-7-7-7-777-7---7-7-7-9-999-9---9-9-9-
E -2-222-2---2-2-2-5-555-5---5-5-5-----------------7-777-7---7-7-7-

[+] [+] [+] [+] [+] [+] [+] [+] [+][+][+][+][+][+][+][+]


E -----------------------------------------------------------------
B -----------------------------------------------------------------
G ---------------------------------9-999-9---9-9-9-6-666-6---6-6-6-
D -4-444-4---4-4-4-7-777-7---7-7-7-9-999-9---9-9-9-6-666-6---6-6-6-
A -4-444-4---4-4-4-7-777-7---7-7-7-7-777-7---7-7-7-4-444-4---4-4-4-
E -2-222-2---2-2-2-5-555-5---5-5-5---------------------------------

INTRO:
1x A

VERSE:
2x A’

CHORUS:
2x C

VERSE:
1x A’

CHORUS:
2x C

BREAK:
1x B
noise
1x C’

CHORUS:
2x C
1x B

To play the this songs, including The End of the Line by The Offspring by ukulele, the most important basic ukulele chords to learn are C chord, D chord, G chord, and Em chord.
These set you up to play a ton of songs, and each of them is easy to master.

If you are searching for When You’re in Prison ukulele chords, you already visit to the best place.
You can play versatile instrument When You’re in Prison using ukulele or guitar.
This song by The Offspring can also be played by that instruments.
=

When You’re in Prison chords has rhythm and included in Splinter (2003) album.
You can also find other musical genres, including jazz ukulele chords, country music ukulele chords, pop ukulele chords, world music ukulele chords, and rock ukulele chords here.

When You’re in Prison by The Offspring Ukulele Chords


-------------------------------------------------------------

The Offspring – When You’re In Prison


-------------------------------------------------------------

Standart Tuning


------------

Chords


------------

[Bb/D]


e|----------------------------------
B|--8---9----6---3-----4----4-------
G|--8---10---7---3-----5----4-------
D|--8---10---8---3-----6----6-------
A|--6---8----8---5-----6----6-------
E|-----------6---------4----4-------
-----------

Intro


-----------


e|-------------------------------
B|-----8-----8------8-----8------
G|-----8-----8------8-----8------
D|-----8-----8------8-----8------
A|-6-------------6---------------
E|-------6-------------6---------
-----------

Verse 1


-----------

[Bb/D]


e|----------------------------------------------------------
B|-----8-----8------9-----------------3-------8-----8-------
G|-----8-----8------10---------7------3-------8-----8-------
D|-----8-----8------10---------8------3-------8-----8-------
A|-6-------------8-------------8---5------6-----------------
E|-------6--------------4-5-6--------------------6----------

[Bb/D]


e|-----------------------------------------------------
B|-----8-----8------9-----------------3-------8--------
G|-----8-----8------10---------7------3-------8--------
D|-----8-----8------10---------8------3-------8--------
A|-6-------------8-------------8---5------6------------
E|-------6--------------4-5-6--------------------6-5---
-----------

Chorus


-----------


e|------------------------------------------------------
B|-------------------------------8-----8------8---------
G|---5------5------4------4------8-----8------8---------
D|---6------6------6------6------8-----8------8---------
A|---6------6------6------6---6------------6------------
E|-4-----4------4------4------------6------------6-5----


e|----------------------------------------------------
B|--------------------------------9-------9-----------
G|---5------5------4------4-------10------10---7------
D|---6------6------6------6-------10------10---8------
A|---6------6------6------6----8-------8-------8------
E|-4-----4------4------4-----------------------6------
e|-----------------
B|-----------------
G|-----------------
D|-10-8------------
A|------11-10-8----
E|-----------------
-----------

Verse 2


-----------

(Same as previous)


-----------

Chorus


-----------

(Same as previous)


-----------

Verse 3


-----------

(Same as previous)


-----------

Outro


-----------

[Bb/D]


e|------------------------------
B|-----------3-----8-----8------
G|----7------3-----8-----8------
D|----8------3-----8-----8------
A|----8---5-----6-----6---------
E|-6----------------------------

[Bb/D]


e|-----------------------------------------------------------------------
B|-----------3----------------------------------8-----8-------8-8-8-8----
G|----7------3------5------5------4------4------8-----8-------8-8-8-8----
D|----8------3------6------6------6------6------8-----8-------8-8-8-8----
A|----8---5---------6------6------6------6---6-----6-----6----6-6-6-6----
E|-6------------4-------4-----4-------4----------------------------------

When you’re in prison don’t turn the other way
Keep your back against the wall
When you’re in prison don’t turn the other way
Do not bend at all

Oh don’t pick up the soap pick up the soap
It’s bad for you

Oh don’t pick up the soap pick up the soap
Someone will be waiting there for you

When you’re in prison be sure to stay awake
Always lie upon your back

When you’re in prison be sure to stay awake
Keep you from attack

Oh don’t be no one’s bch be no one’s bch
It’s bad for you

Oh don’t be no one’s bch be no one’s bch
They won’t help you make it through

When you’re in prison, don’t turn the other way
Follow what I say to do

When you’re in prison don’t turn the other way
You can make it through
You can make it through
You can make it through

To play the most songs, including When You’re in Prison by The Offspring by ukulele, the most important basic ukulele chords to learn are C chord, D chord, G chord, and Em chord.
These set you up to play a many of songs, and each of them is easy to learn.

  • 1
  • 2