If you are looking for The Bed’s Too Big Without You ukulele chords, you have come to the best site.
You can play versatile instrument The Bed’s Too Big Without You using ukulele or guitar.
This song by The Police can also be played by that instruments.
=

The Bed’s Too Big Without You chords has rhythm and included in Reggatta de Blanc (1979) album.
You can also find other musical genres, including jazz ukulele chords, country music ukulele chords, pop ukulele chords, world music ukulele chords, and rock ukulele chords here.

The Bed’s Too Big Without You by The Police Ukulele Chords


The song is quite simple in structure. Play Fig#1 below
Fig#1


E---------7-----------------------------7---------------------------|
B---------8P7---8P7?8P7------8P7---8P7?8P7--------------------------|
G---------9---------------------------------------------------------|
D-------------------------------------------------------------------|
A-------------------------------------------------------------------|
E-------------------------------------------------------------------|

And then one of the following. (Play all with an off beat reggae feel)


E-------5---5---5-----7---7---7-------------------------------------|
B-------5---5---5-----7---7---7-------------------------------------|
G-------5---5---5-----7---7---7-------------------------------------|
D-------------------------------------------------------------------|
A-------------------------------------------------------------------|
E-------------------------------------------------------------------|


E-------7---7---7----7---7---7----7--5-5---5-S-7--------------------|
B-------7---7---7----7---7---7----7--5-5---5-S-7--------------------|
G-------7---7---7----7---7---7----7--5-5---5-S-7--------------------|
D-------------------------------------------------------------------|
A-------------------------------------------------------------------|
E-------------------------------------------------------------------|


E-----5--5--5--------8--8--8-----------------------------7---7---7----7---7---7--7----5---5---5-S--7--|
B-----5--5--5--------8--8--8-----------------------------7---7---7----7---7---7---7---5---5---5-S--7--|
G-----5--5--5--------9--9--9-----------------------------7---7---7----7---7---7---7---5---5---5-S--7--|
D-----------------------------------------------------------------------------------------------------|
A-----------------------------------------------------------------------------------------------------|
E-----------------------------------------------------------------------------------------------------|

And Bob’s your uncle!

It should all make sense if you listen to the track
The bass line goes like this


E-----------------------------------------------------------------|
B-----------------------------------------------------------------|
G-----------------------------------------------------------------|
D-----2-2-2-2-----------------------------------------------------|
A----------------2-2-2--------------------------------------------|
E------------------------3-0--------------------------------------|

Cheers.
Spnz37@hotmail.com
05/04/01

To play the this songs, including The Bed’s Too Big Without You by The Police by ukulele, the most important basic ukulele chords to learn are C chord, D chord, G chord, and Em chord.
These set you up to play a ton of songs, and each of them is easy to master.

If you are looking for Bring On the Night ukulele chords, you have visit to the right place.
You can play versatile instrument Bring On the Night using ukulele or guitar.
This song by The Police can also be played by that instruments.
=

Bring On the Night chords has rhythm and included in Other Songs album.
You can also get other musical genres, including jazz ukulele chords, country music ukulele chords, pop ukulele chords, world music ukulele chords, and rock ukulele chords here.

Bring On the Night by The Police Ukulele Chords


Tabed by mwamemm@yahoo.fr

verse :
[A-] [E-]


E||----------------------------------------|
B||-----10------10------10---8-----8-----8-|
G||--------9-------9-----------9-----9-----|
D||--10------10------10----9-----9-----9---|
A||----------------------------------------|
E||----------------------------------------|

[A-]


----------------------------------------|
----7-----7-----7----10------10------10-|
------7-----7-----------9-------9-------|
--7-----7-----7---10------10------10----|
----------------------------------------|
----------------------------------------|

[E-]


------------------------------------------|
----8-----8-----8----12-------12-------12-|
------9-----9-----------12-------12-------|
--9-----9-----9---12-------12-------12----|
------------------------------------------|
------------------------------------------|

[A-] E- 4x


-----------------------------------------||
-----10------10------10---8-----8-----8--||
--------9-------9-----------9-----9-----||
--10------10------10----9-----9-----9---||
-----------------------------------------||
-----------------------------------------||

Special warning !!!
sometimes on E- instead of the 8-9-9 he plays 5-4-2 :

E- becomes E-


------------------ ------------------------|
----8-----8-----8- ---5-------5-------5----|
------9-----9----- ------4-------4---------|
--9-----9-----9--- 2-------2-------2-------|
------------------ ------------------------|
------------------ ------------------------|

you can listen to the record to play it on time …
…or play it when you feel like it
!!!
chorus.


|-----7-7---7----7-7---7--|----9--9----9-----9--9----9---|
|-----8-8---8----8-8---8--|----10-10---10----10-10---10--|
|----7-7---7----7-7---7--|----9--9----9-----9--9----9---|
|------------------------|------------------------------|
|-------------------------|------------------------------|
|-------------------------|------------------------------|

A- A- E- D (Maj7) 2x


----12-12---12----12-12---12--|----12-12---12----9--9----9---||
----10-10---10----13-13---13--|----12-12---12----10-10---10--||
----9--9----9-----14-14---14--|----12-12---12----11-11---11-||
------------------------------|-----------------------------||
------------------------------|------------------------------||
------------------------------|------------------------------||

It’s quick and dirty work, as usual coming from me…
The D (Maj7) may seem strange at first but fits alright.

To play the most songs, including Bring On the Night by The Police by ukulele, the most important basic ukulele chords to learn are C chord, D chord, G chord, and Em chord.
These set you up to play a a lot of songs, and each of them is easy to learn.

If you are searching for Don’t Stand So Close to Me ukulele chords, you have come to the right site.
You can play versatile instrument Don’t Stand So Close to Me using ukulele or guitar.
This song by The Police can also be played by that instruments.
=

Don’t Stand So Close to Me chords has rhythm and included in Zenyattà Mondatta (1980) album.
You can also get another musical genres, including jazz ukulele chords, country music ukulele chords, pop ukulele chords, world music ukulele chords, and rock ukulele chords here.

Don’t Stand So Close to Me by The Police Ukulele Chords


–987654321_0_

———————————————————
———————————————————

–987654321_0_
Content-Disposition: attachment; filename”DONTSTSO.txt”

“Don’t Stand So Close to Me” by The Police
Words and music: Sting

Verse 1:

Young teacher the subject

Of school girl Fantasy.

She wants him so badly,

Knows what she wants to be.

Inside her there’s longing,

This girl’s an open page

Book marking she’s so close now.

This girl is half his age.

Chorus:

Don’t stand Don’t stand so Don’t stand so close to me

Don’t stand Don’t stand so Don’t stand so close to be.
Verse 2

Her friends are so jealous

You know how bad girls get

Sometimes it’s not so easy

To be the teacher’s pet

Temptation frustration

so bad it makes him cry

Wet bus stop she’s waiting

His car is warm and dry

Chorus

Verse 3

Loose talk in the class room
to hurt they try and try.
Strong words in the staff room
the accusations fly
It’s no use he sees her
he starts to shake and cough
just like the old man
in that book by Nabakov.

Chorus

–987654321_0_

–987654321_0_–

To play the most songs, including Don’t Stand So Close to Me by The Police by ukulele, the most crucial basic ukulele chords to learn are C chord, D chord, G chord, and Em chord.
These set you up to play a ton of songs, and each of them is easy to learn.

If you are searching for Every Little Thing She Does Is Magic ukulele chords, you’ve come to the best site.
You can play versatile instrument Every Little Thing She Does Is Magic using ukulele or guitar.
This song by The Police can also be played by that instruments.
=

Every Little Thing She Does Is Magic chords has rhythm and included in Ghost in the Machine (1981) album.
You can also get other musical style, including jazz ukulele chords, country music ukulele chords, pop ukulele chords, world music ukulele chords, and rock ukulele chords here.

Every Little Thing She Does Is Magic by The Police Ukulele Chords


-----0------------0----------0-------------2-0--------|
--------3------------3------------3-------------3-2-0-|
--0/2--2------0/2---2-----0/2---2------0/2------------| Verse
------------------------------------------------------|
------------0------------2-----------4----------------|
-3----------------------------------------------------|
-2-------2-------2-------2--------------|
-3--3-5--3--3-5--3--3-5--3--------------|
-2--4-6--2--4-6--2--4-6--2--------------| Pre Chorus
-0--5-7--0--5-7--0--5-7--0--------------|
----------------------------------------|
----------------------------------------|

Chorus: A, D, A, D, A, D, A, Bb, F.. Then:


-----0------------0----------0-------------2-0--------|
--------3------------3------------3-------------3-2-0-|
--0/2--2------0/2---2-----0/2---2------0/2------------| Verse
------------------------------------------------------|
------------0------------2-----------4----------------|
-3----------------------------------------------------|

I resolved to call her up a thousand times a day, and ask her if she’ll mary
me, in some old-fashioned way. But my silent fears have gripped, long before
I reached the phone, long before my tongue has tripped me, must I always be


Alone --> -2-------2--|
-3--4-5--3--|
-2--6-6--2--|
-0--5-7--0--|
------------|
------------|

The other part of song follows ” Bb F G A Bb C prechorus”.

La parte restante della canzone segue “Bb F G A C preritornello”.

To play the most songs, including Every Little Thing She Does Is Magic by The Police by ukulele, the most important basic ukulele chords to learn are C chord, D chord, G chord, and Em chord.
These set you up to play a ton of songs, and each of them is easy to master.

If you are searching for On Any Other Day ukulele chords, you’ve come to the best place.
You can play versatile instrument On Any Other Day using ukulele or guitar.
This song by The Police can also be played by that instruments.
=

On Any Other Day chords has rhythm and included in Reggatta de Blanc (1979) album.
You can also find another musical style, including jazz ukulele chords, country music ukulele chords, pop ukulele chords, world music ukulele chords, and rock ukulele chords here.

On Any Other Day by The Police Ukulele Chords


“On Any Other Day” by The Police

Play in the standard reggae-esque Police rhythm.

———8
On Any Other Day by The Police

Theres a house on my street, and it looks real neat.
I’m the chap who lives in it.
Theres a tree on the sidewalk, theres a car by the door.
I’ll go for a drive in it.
And when the wombat (‘) comes, he will find me gone.
He’ll look for a place to sit.

Chorus I:
My wife has burned the scrambled eggs.
The dog’s just bit my leg.
My teen-aged daughter ran away.
My fine young son has turned out gay.

Cut up my fingers in the door of my car.
How could I do it?
My wife is proud to tell me of her love affairs.
How could she do this to me?

Chorus I

Chorus II:
And it would be [B/A]OK on any other day. [B/A]X2

Throw down the morning papers, and spill my tea.
I don’t know whats wrong with me.
The cups and plates are in a conspiracy.
I’m covered in misery.

Chorus I
Chorus II X4 (w/ Chipmunk-like voice: “Happy birthday dear daddy”)

—————————————————————————-

Sacha Michel Mallais sacha@global-village.net
http://www.global-village.net/sacha
The bird of paradise alights only upon the hand that does not grasp.

To play the this songs, including On Any Other Day by The Police by ukulele, the most important basic ukulele chords to learn are C chord, D chord, G chord, and Em chord.
These set you up to play a ton of songs, and each of them is easy to learn.

If you are searching for every breath you take ukulele chords, you have come to the right place.
You can play versatile instrument every breath you take using ukulele or guitar.
This song by The Police can also be played by that instruments.
=

every breath you take chords has rhythm and included in album.
You can also find other musical style, including jazz ukulele chords, country music ukulele chords, pop ukulele chords, world music ukulele chords, and rock ukulele chords here.

every breath you take by The Police Ukulele Chords



 
Every breath you take
Every move you make
Every bond you break
Every step you take
I’ll be watching you
 
Every single day
And every word you say
Every game you play
Every night you stay
I’ll be watching you
 

 
Oh can’t you see, you belong to me
How my poor heart
aches, with every step you take
 
And every move you make
And every vow you break
Every smile you fake
Every claim you stake
I’ll be watching you
 

 
Since you’ve gone I’ve
been lost without a trace
I dream at night, I
can only see your face
I look around but it’s you I can’t rereplace
I feel so cold and I long for your emembrace
I keep crying baby, baby, please
 
[Instrumental]
 


 
Oh can’t you see, you belong to me
How my poor heart aches,
with every step you take
 
Every breath you take
Every move you make
Every bond you break
Every step you take
I’ll be watching you
 
I’ll be watching you
I’ll be watching you
I’ll be watching you
I’ll be watching you
I’ll be watching you
I’ll be watching you
I’ll be watching you

To play the most songs, including every breath you take by The Police by ukulele, the most important basic ukulele chords to learn are C chord, D chord, G chord, and Em chord.
These set you up to play a many of songs, and each of them is easy to learn.

If you are searching for One World (Not Three) ukulele chords, you’ve come to the best place.
You can play versatile instrument One World (Not Three) using ukulele or guitar.
This song by The Police can also be played by that instruments.
=

One World (Not Three) chords has rhythm and included in Ghost in the Machine (1981) album.
You can also get other musical style, including jazz ukulele chords, country music ukulele chords, pop ukulele chords, world music ukulele chords, and rock ukulele chords here.

One World (Not Three) by The Police Ukulele Chords


One World (Not Three)
The Police
Ghost in the Machine 1981

Not one of my favourite Police
songs. Nice words though.

|G| |F| |G| |F|

|G| |F| |G| |F|

One world is enough, for all of us
One world is enough, for all of us

( Tab from: http://www.guitartabs.cc/tabs/t/the_police/one_world_not_three_crd.html )
It’s a subject we rarely mention
But when we do we have this little invention
By pretending they’re a different world from me
I show my responsibility
One world is enough, for all of us
One world is enough, for all of us

The whole song!

To play the this songs, including One World (Not Three) by The Police by ukulele, the most crucial basic ukulele chords to learn are C chord, D chord, G chord, and Em chord.
These set you up to play a ton of songs, and each of them is easy to master.

If you are searching for Does Everyone Stare ukulele chords, you already visit to the right place.
You can play versatile instrument Does Everyone Stare using ukulele or guitar.
This song by The Police can also be played by that instruments.
=

Does Everyone Stare chords has rhythm and included in Reggatta de Blanc (1979) album.
You can also get another musical genres, including jazz ukulele chords, country music ukulele chords, pop ukulele chords, world music ukulele chords, and rock ukulele chords here.

Does Everyone Stare by The Police Ukulele Chords


Intro
[F/D] [Cm/Eb]
Verse 1
I cha[F/D]nge my [Cm/Eb]clothes ten times Before I take you on a date
I’m[F/D] in a [Cm/Eb]cold sweat, my panic it makes me late
[F/D]I know you[Cm/Eb] never asked for this I know My
Shots will[F/D] alway[Cm/Eb]s miss I know My shots will
Always miss

Weird Chorus
Cm Bb/D Cm/Eb Bb/G ( F (note) Cm/D Eb (Note) Bb ) x2
Does everyone stare this way at you?
Cm Bb/D Cm/Eb Bb/G ( F (note) Cm/D Eb (Note) Bb ) x2
I only look this way at you (operatic) ah_____________________

Verse 2
I cha[F/D]nge my [Cm/Eb]clothes ten times Before I take you on a date[F/D]
I [Cm/Eb]get the heebie-jeebies, and my panic makes me late[F/D]
I [Cm/Eb]break into a cold sweat reaching for the phone[F/D]
I [Cm/Eb]let it ring twice before I chicken out and
decide you’re not at home[Cm/F]

Normal Chorus
Cm Cm/Eb Bb Cm/F Cm Cm/Eb Bb ( Cm/F Cm Cm/Eb Bb ) x2 Cm/F
Does everyone stare the way I do?
Cm Cm/Eb Bb Cm/F Cm Cm/Eb Bb ( Cm/F Cm Cm/Eb Bb ) x2
I only stare this way at you

Verse 3
I n[F/D]ever [Cm/Eb]noticed the size of my feet
[F/D]’Til I [Cm/Eb]kicked you in the shins
[F/D]Will [Cm/Eb]you ever forgive me
[F/D]for th[Cm/Eb]e shape I’m in
For the shape I’m i[Cm/F]n

Normal Chorus
Cm Cm/Eb Bb Cm/F Cm Cm/Eb Bb ( Cm/F Cm Cm/Eb Bb ) x2 Cm/F
Does everyone stare the way I do?
Cm Cm/Eb Bb Cm/F Cm Cm/Eb Bb ( Cm/F Cm Cm/Eb Bb ) x2
I only stare this way at you

Verse 4
I’m g[F/D]onna [Cm/Eb]write you a sonnet but I don’t know where to start
I'[F/D]m so[Cm/Eb] used to laughing at the things in my heart[F/D]
[Cm/Eb]Last of all I’m sorry ‘cause you never asked for this[F/D]
I ca[Cm/Eb]n see I’m not your type and my shots will always
miss, always miss

Chorus with Verse chords
[F/D]Does [Cm/Eb]everyone stare the way I do?[F/D][Cm/Eb]
[F/D]I [Cm/Eb] only stare this way at you[F/D][Cm/Eb]
Fade out on /| x8
|

To play the this songs, including Does Everyone Stare by The Police by ukulele, the most important basic ukulele chords to learn are C chord, D chord, G chord, and Em chord.
These set you up to play a ton of songs, and each of them is easy to learn.

If you are searching for Can’t Stand Losing You ukulele chords, you’ve visit to the best site.
You can play versatile instrument Can’t Stand Losing You using ukulele or guitar.
This song by The Police can also be played by that instruments.
=

Can’t Stand Losing You chords has rhythm and included in Outlandos d’Amour (1978) album.
You can also find another musical style, including jazz ukulele chords, country music ukulele chords, pop ukulele chords, world music ukulele chords, and rock ukulele chords here.

Can’t Stand Losing You by The Police Ukulele Chords


Intro: Dm Gm Dm Gm Dm Gm Dm Gm


e-1-1-5-5-3-3-3-3---
B-3-3-5-5-3-3-3-3---
G-2-2-5-5-3-3-3-3--- play this
D------------------- x4
A-------------------
E-------------------
e----------------------------
B----------------------------
G-3------3------5------552---
D-3--33--3--33--5--55--552---
A-1--33--1--33--3--55--330---
E----11-----11-----33--------
e-6-6-6-6-6-6-6-6-3-3-3-3-3-3-3-3-------------------
B-6-6-6-6-6-6-6-6-3-3-3-3-3-3-3-3-------------------
G-7-7-7-7-7-7-7-7-4-4-4-4-4-4-4-4-------------------
D-8-8-8-8-8-8-8-8-5-5-5-5-5-5-5-5-7-7-7-7-7-7-7-7---
A-8-8-8-8-8-8-8-8-5-5-5-5-5-5-5-5-7-7-7-7-7-7-7-7---
E-6-6-6-6-6-6-6-6-3-3-3-3-3-3-3-3-5-5-5-5-5-5-5-5---

e-1-3—
[B-3-3—]G-2-3— play this


D------- x8
A-------
E-------
e-1-1-5-5-3-3-3-3---
B-3-3-5-5-3-3-3-3---
G-2-2-5-5-3-3-3-3--- play this
D------------------- x4
A-------------------
E-------------------
e----------------------------
B----------------------------
G-3------3------5------552---
D-3--33--3--33--5--55--552---
A-1--33--1--33--3--55--330---
E----11-----11-----33--------
e-6-6-6-6-6-6-6-6-3-3-3-3-3-3-3-3-------------------
B-6-6-6-6-6-6-6-6-3-3-3-3-3-3-3-3-------------------
G-7-7-7-7-7-7-7-7-4-4-4-4-4-4-4-4------------------- play this
D-8-8-8-8-8-8-8-8-5-5-5-5-5-5-5-5-7-7-7-7-7-7-7-7--- x2
A-8-8-8-8-8-8-8-8-5-5-5-5-5-5-5-5-7-7-7-7-7-7-7-7---
E-6-6-6-6-6-6-6-6-3-3-3-3-3-3-3-3-5-5-5-5-5-5-5-5---

There is a little bit played here which I haven’t figured out yet!
But the song comes back to this……


e----------------------------
B----------------------------
G-3------3------5------552---
D-3--33--3--33--5--55--552---
A-1--33--1--33--3--55--330---
E----11-----11-----33--------
e-6-6-6-6-6-6-6-6-3-3-3-3-3-3-3-3-------------------
B-6-6-6-6-6-6-6-6-3-3-3-3-3-3-3-3-------------------
G-7-7-7-7-7-7-7-7-4-4-4-4-4-4-4-4------------------- play this
D-8-8-8-8-8-8-8-8-5-5-5-5-5-5-5-5-7-7-7-7-7-7-7-7--- x2
A-8-8-8-8-8-8-8-8-5-5-5-5-5-5-5-5-7-7-7-7-7-7-7-7---
E-6-6-6-6-6-6-6-6-3-3-3-3-3-3-3-3-5-5-5-5-5-5-5-5---
e-8--8--8--8--8--8--8--8------------------6-6-6-6-6-6-6-6---
B-8--8--8--8--8--8--8--8------------------6-6-6-6-6-6-6-6--- play this
G-9--9--9--9--9--9--9--9------------------7-7-7-7-7-7-7-7--- x2
D-10-10-10-10-10-10-10-10-7-7-7-7-7-7-7-7-8-8-8-8-8-8-8-8---
A-10-10-10-10-10-10-10-10-7-7-7-7-7-7-7-7-8-8-8-8-8-8-8-8---
E-8--8--8--8--8--8--8--8--5-5-5-5-5-5-5-5-6-6-6-6-6-6-6-6---
e-8--8--8--8------------
B-8--8--8--8------------
G-9--9--9--9------------
D-10-10-10-10-7-7-7-7---
A-10-10-10-10-7-7-7-7---
E-8--8--8--8--5-5-5-5---

e-1-3—
[B-3-3—]G-2-3— play this


D------- x4
A-------
E-------

There you go a brilliant song by a brilliant band

To play the this songs, including Can’t Stand Losing You by The Police by ukulele, the most crucial basic ukulele chords to learn are C chord, D chord, G chord, and Em chord.
These set you up to play a a lot of songs, and each of them is easy to master.

If you are looking for Omegaman ukulele chords, you’ve come to the right place.
You can play versatile instrument Omegaman using ukulele or guitar.
This song by The Police can also be played by that instruments.
=

Omegaman chords has rhythm and included in Ghost in the Machine (1981) album.
You can also get other musical genres, including jazz ukulele chords, country music ukulele chords, pop ukulele chords, world music ukulele chords, and rock ukulele chords here.

Omegaman by The Police Ukulele Chords


Tabbed By: Belavista Man
On: 16/06/07
E-mail: anthonybentley@hotmail.co.uk

For this bass tab, the bassline is simple, single notes. So I have put chord names over
top of lyrics, but (instead of chords) they represent bass notes.

Intro:


G|-------|-------|-------|-------|
D|-------|-------|-------|-------|
A|-------|-------|-------|-------|
E|-3-----|-3-----|-3-----|-3-----|


G|--------------------------------------------------------------|
D|--------------------------------------------------------------|
A|--------------------------------------------------------------|
E|--5-5-5-5-5-5-5-5-5-5-5-5-5-5-5-5-3-3-3-3-3-3-3-3-3-3-3-3-3-3-|

The Night… …in my ears.


G|--------------------------------------------------------------|
D|--------------------------------------------------------------|
A|--------------------------------------------------------------|
E|--5-5-5-5-5-5-5-5-5-5-5-5-5-5-5-5-3-3-3-3-3-3-3-3-3-3-3-3-3-3-|

City screams… ..twenty years.

For the “I’m the omegaman” parts, the bass plays ringing G bass notes every other bar.
it would be First bar:G (rings through second bar) Third Bar:G (rings through fourth
etc.)

I think that’s the best way for me to describe it, anyway. Here’s the lyrics and notes:

Intro: G
( Tab from: http://www.guitartabs.cc/tabs/t/the_police/omegaman_btab.html )
The night came down, jungle sounds were in my ears
City screams are all Ive heard in twenty years
The razors edge of night, it cuts into my sleep
I sit upon the edge now
Shall I make that leap?

Im the omegaman
Im the omegaman

The skys alive with turned on television sets
I walk the streets and seek another vision yet
The echo makes me turn to see that last frontier
The edge of time closes down as I disappear

Im the omegaman
Im the omegaman
Im the omegaman
Im the omegaman
Always talking to myself
Oh!

Solo: Same as verses (A G A G etc)

The time thats best is when surroundings fade away
The presense of another world comes close to me
Its time for me to throw away this paper knife
Im not alone in reaching for a perfect life

Im the omegaman
Im the omegaman
Im the omegaman
Im the omegaman

To play the most songs, including Omegaman by The Police by ukulele, the most important basic ukulele chords to learn are C chord, D chord, G chord, and Em chord.
These set you up to play a many of songs, and each of them is easy to master.

  • 1
  • 2