If you are looking for Mach 5 ukulele chords, you have visit to the best site.
You can play versatile instrument Mach 5 using ukulele or guitar.
This song by The Presidents of the United States of America can also be played by that instruments.
=

Mach 5 chords has rhythm and included in II (1996) album.
You can also find another musical style, including jazz ukulele chords, country music ukulele chords, pop ukulele chords, world music ukulele chords, and rock ukulele chords here.

Mach 5 by The Presidents of the United States of America Ukulele Chords


Date: Sun, 12 Jan 1997 00:19:01 -0800
From: Stefan Nijenhuis
Subject: TAB: “Mach5” by the Presidents of the USA
Mach 5 – Presidents of the USA (from the cd II)
intro: (somethin’ like this, listen to the record to get the right feel)

-2————–2————–0————-0—-
-2————–2————–0————-0—-
-3–4–4—3—-3–4–4—3—-1–2–2–1—-1—- 2x
-4–2–2—4—-4–2–2—4—-2–0–0–2—-2—-
-4–4–4—4—-4–4–4—4—-2–2–2–2—-2—-
-2————–2————–0————-0—-

I will survive in my mach 5, in my mach 5 I will survive yeahyeahyeah
I bring the hammer down
A tiny crushing sound
I’m in the yard
Smashing match box cars
An itty bitty crash
And my machine is trash
But I’m blastin’ past
With chickey on the dash, chickey on the gas ‘go chickey!’
repeat intro (clean sound/acoustic guitar)
I will survive in my mach 5, in my mach 5 I will survive
The firecracker blow
An urge overload
The wild plastic fire
Smoke from the tire
Layin’ a little patch
Without a single scratch
Between the hammer and the rock I
Can see bright blue mach 5
Oh my goodness…
It’s the most beautiful
little thing I’ve ever seen in my life
It’s blue on the outside
And creamy on the interior
I can’t bring myself to smash it
So I take it for a ride on a
Sunny summer sunday afternoon
I’m riding with the top down
Riding with the top down
Riding with the top down
Hell I blew the top right off my car!
I will survive in my mach 5, in my mach 5 I will survive

———————————

tabbed by Stefan & Dennis Nijenhuis
s.nijenhuis@pi.net

To play the most songs, including Mach 5 by The Presidents of the United States of America by ukulele, the most crucial basic ukulele chords to learn are C chord, D chord, G chord, and Em chord.
These set you up to play a ton of songs, and each of them is easy to master.

If you are looking for Volcano ukulele chords, you already come to the best place.
You can play versatile instrument Volcano using ukulele or guitar.
This song by The Presidents of the United States of America can also be played by that instruments.
=

Volcano chords has rhythm and included in II (1996) album.
You can also find another musical genres, including jazz ukulele chords, country music ukulele chords, pop ukulele chords, world music ukulele chords, and rock ukulele chords here.

Volcano by The Presidents of the United States of America Ukulele Chords

Valcano- By the Presidents of the USA
Tabbed By Dave Wachala csoul@mail.com
Standard Tuning with Dropped D


-------------------------I
-------------------------I
-2---7---11--------------I
-2---7---11--------------I
-2---7---11--------------I

Intro:

Guitar 1


---------------------------------I---------------------------------I
---------------------------------I---------------------------------I
---------------------------------I---------------------------------I
---------------------------------I---------------------------------I
-2--2--2--2--0----5--5---0--2----I-2--2--2--2--0----5--5---0--2----I
-2--2--2--2--0----5--5---0--2----I-2--2--2--2--0----5--5---0--2----I

IGuitar 2 I


---------------------------------I---------------------------------I
--------------1/2br-----full bendI--------------1/2br--------------I
---------9-11--11----9--11-------I---------9-11--11----9--11---9---I
-----9h11------------------------I-----9h11------------------------I
-9h11----------------------------I-9h11----------------------------I
---------------------------------I---------------------------------I

Guitar 1


---------------------------------I---------------------------------I
---------------------------------I---------------------------------I
---------------------------------I---------------------------------I
---------------------------------I---------------------------------I
-2--2--2--2--0----5--5---0--2----I-2--2--2--2--0----5--5---0--2-2-2I
-2--2--2--2--0----5--5---0--2----I-2--2--2--2--0----5--5---0--2-2-2I

IGuitar 2 I


---------------------------------I---------------------------------I
--------------1/2br-----full bendI--------------1/2br--------------I
---------9-11--11----9--11-------I---------9-11--11----9--11---9---I
-----9h11------------------------I-----9h11------------------------I
-9h11----------------------------I-9h11----------------------------I
---------------------------------I---------------------------------I
-----------------------------------------------I
-----------------------------------------------I
-----------------------------------------------I

-________________Palm mute__________________-2-I


-2-2-2-2-2-2-2-2-2-2-2-2-2-2-2-2-2-2-2-2-2-2-2-I
-2-2-2-2-2-2-2-2-2-2-2-2-2-2-2-2-2-2-2-2-2-2-2-I

I I


-----------------------------------------------I
-----------------------------------------------I
-9-------------------------------------------9-I
-------11-9-11-9------------------9-----9----9-IStop
--------------------11--9----9h11---9h11--9--7-I
-----------------------------------------------I

Verse:
Under the island… middle of a mountain
There is a big bad… boomin’ system
Blowin’ speakers, woofers and tweeters
Amplifiers… melted wires
The party exploded.. the core is corroded
Under ground… the Puget Sound
Cause a shiftin’… and a driftin’
Big black boom box… stuck in the hot rock
It’s in there flowin’… it’s in there growin’
You don’t believe me… that this scenery
Could be a… cold blooded killer

Chorus:
Guitar 1
It’s gonna blow woa woa woa…. Volcano


-------------------------------------------------------------------------------I
-------------------------------------------------------------------------------I
------------------------------------------------9-9-9-9------------------------IX3
------------------------------------------------7-7-7-7---9--11--9-------------I
-2--2-2-3x-5x---------9--11--9--7--7h9-7--5--0--7-7-7-7------------------------I
-2--2-2-3x-5x-----------------------------------7-7-7-7------------9--11--9--11I

Then go to the intro

This verse is the same as the first but with a semi-clean guitar

Now the island is shiftin’… the plates are liftin
The core is creamy… docile and dreamy
Stopped up and steamy
Happy campers… poop in their pampers
When a mountain… become a fountain
Of white hot lave… molten magma
Super sonic… plate tectonics
Stereo phonic… lava and tonic
The boom is bionic
Sony shut down… magnavox meltdown
Ballistic breakdown
Hi-fi heatwave… lo-fi lava cave
That sulfur smell is… Mt. St. Helens
Pompeii was yellin’…

play Chorus 4 times

Outro:


-----------------------I------------------------I
-----------------------I------------------------I
-----------------------I------------------------I
-----------------------I------------------------I
-4-4-4-4--2-/-7--2---4-I-4-4-4-4--2-/-7--2---4--I
-4-4-4-4--2-/-7--2---4-I-4-4-4-4--2-/-7--2---4--I

Then you just go crazy strumming that

To play the most songs, including Volcano by The Presidents of the United States of America by ukulele, the most important basic ukulele chords to learn are C chord, D chord, G chord, and Em chord.
These set you up to play a many of songs, and each of them is easy to learn.

If you are searching for Toob Amplifier ukulele chords, you already visit to the best site.
You can play versatile instrument Toob Amplifier using ukulele or guitar.
This song by The Presidents of the United States of America can also be played by that instruments.
=

Toob Amplifier chords has rhythm and included in II (1996) album.
You can also get another musical style, including jazz ukulele chords, country music ukulele chords, pop ukulele chords, world music ukulele chords, and rock ukulele chords here.

Toob Amplifier by The Presidents of the United States of America Ukulele Chords

Date: Wed, 01 Jan 1997 23:43:06 -0500
From: Sausage Man

Toob Amplifier From “II” by The
Presidents of the United States of America

(Clear throat) Excuse me, can I tell you a story? (Other voice) Yeah,
lay it on us, man. (You again) Okay, goes like this:

w/ flanger
I got myself a brand new

Tube amplifier

It’s large and lovely to be hold

end flanger w/ fuzz or overdrive distortion
la la la la la

I got myself a

tube amplifier

Now I’m gonna blow a big one

I got myself a brand new

Big bertha driver

It’s gonna take it to the ring (?)

(take it to the ring)

I got myself a

Big bertha driver

Now I’m gonna blow a big one

Solo:
~ vibrato ^ bend up as indicated
1 step

—————————————————————————————————————————————————————————————————————————————————————————8-8-8-9-8-6-4-6-6-4-6-8—8-8-8-9-8-6-4——-/9-11-13-11—9-9-9-9-6–11-11-9-11^-11——————————————4————————————————————————————————————————————-

let ring

————————————————————————————————————————————————————————————————————————————————————————–8-11-13-11-13-11-13-11~~~~~~~—————————————————————————————————————————————————————————————————————————————–

play staccato
I got myself a brand new

Cymbal supplier

They’re really good

They’re sapien (?)

(They’re good they’re sapien)

I got myself a

Cymbal supplier

Now I’m gonna crash

Now I’m gonna bash

Now I’m gonna blow a big one

That’s about it. Any comments, suggestions, etc., please email them to
me. Later.

-Jeff (guitarist@ibm.net)

To play the this songs, including Toob Amplifier by The Presidents of the United States of America by ukulele, the most crucial basic ukulele chords to learn are C chord, D chord, G chord, and Em chord.
These set you up to play a ton of songs, and each of them is easy to learn.

If you are searching for Boll Weevil ukulele chords, you have come to the best place.
You can play versatile instrument Boll Weevil using ukulele or guitar.
This song by The Presidents of the United States of America can also be played by that instruments.
=

Boll Weevil chords has rhythm and included in The Presidents of the United States of America (1995) album.
You can also find another musical genres, including jazz ukulele chords, country music ukulele chords, pop ukulele chords, world music ukulele chords, and rock ukulele chords here.

Boll Weevil by The Presidents of the United States of America Ukulele Chords


Regular tuning.

FIRST VERSE (you may talk about the ladies…)


E-----------------|
B-----------------|
G-----------------|
D-3-3-3-3-3-3-3-3-| X4
A-3-3-3-3-3-3-3-3-|
E-1-1-1-1-1-1-1-1-|
E---------------------------------|
B---------------------------------|
G-3-3-3-3-3-3-3-3-3-3-3-3---------|
D-3-3-3-3-3-3-3-3-3-3-3-3-3-3-3-3-| x1
A-1-1-1-1-1-1-1-1-1-1-1-1-3-3-3-3-|
E-------------------------1-1-1-1-|
E-----------------------|
B-----------------------|
G-3-3-3-3-3333----------|
D-3-3-3-3-3333-33333333-| x1
A-1-1-1-1-1111-33333333-|
E--------------11111111-|
E----------|
B----------|
G----------|

D-33333333- X2
[A-33333333-]
[E-11111111-]


E-------------------|
B-------------------|
G-333333333333------|

D-333333333333-3333-| X1
A-111111111111-3333-|


E--------------1111-|
E-------------------|
B-------------------|
G-33333333----------|

D-33333333-33333333-| X1
A-11111111-33333333-|


E----------11111111-|

CHORUS (they are looking for a home…)


E-------------------------------------|
B-------------------------------------|
G-33333333----------55555555----------|

D-33333333-33333333-55555555-33333333-| X1
A-11111111-33333333-33333333-33333333-|


E----------11111111----------11111111-|

SECOND VERSE (the farmer he took the boll weevil…)


E----------|
B----------|
G----------|

D-xxxxxxxx- x4
A-xxxxxxxx-
[E-11111111-]


E-------------------|
B-------------------|
G-333333333333------|

D-333333333333-3333-| X1
A-111111111111-3333-|


E--------------1111-|
E-------------------|
B-------------------|
G-33333333----------|

D-33333333-33333333-| X1
A-11111111-33333333-|


E----------11111111-|
E----------|
B----------|
G----------|

D-33333333- X2
[A-33333333-]
[E-11111111-]


E-------------------|
B-------------------|
G-333333333333------|

D-333333333333-3333-| X1
A-111111111111-3333-|


E--------------1111-|
E-------------------|
B-------------------|
G-33333333----------|

D-33333333-33333333-| X1
A-11111111-33333333-|


E----------11111111-|

SECOND CHORUS (yeah its full of them holes…)


E-------------------------------------|
B-------------------------------------|
G-33333333----------55555555----------|

D-33333333-33333333-55555555-33333333-| X1
A-11111111-33333333-33333333-33333333-|


E----------11111111----------11111111-|

THIRD VERSE (now this next verse is about myself…)


E----------|
B----------|
G----------|

D-33333333- x48
[A-33333333-]
[E-11111111-]


E-------------------|
B-------------------|
G-333333333333------|

D-333333333333-3333-| X1
A-111111111111-3333-|


E--------------1111-|
E-------------------|
B-------------------|
G-33333333----------|

D-33333333-33333333-| X1
A-11111111-33333333-|


E----------11111111-|

BRIDGE (now stop for a minute meg…)


E-------------------------------------|
B-------------------------------------|
G-------------------------------------|
D--------------------------------3333-| x1
A-11111111----------33333333-----3333-|
E----------11111111----------11111111-|

THIRD CHORUS (yeah he’s lookin’ for a home)


E----------------------------------------|
B----------------------------------------|
G-33333333----------55555555----55---3---|
D-33333333-33333333-55555555-33-55-3-3-3-| x1
A-11111111-33333333-33333333-33-33-3-1-3-|
E----------11111111----------11----1---1-|

a great song and (once you learn the structure) very easy.

enjoy.

To play the this songs, including Boll Weevil by The Presidents of the United States of America by ukulele, the most crucial basic ukulele chords to learn are C chord, D chord, G chord, and Em chord.
These set you up to play a many of songs, and each of them is easy to master.

If you are searching for Stranger ukulele chords, you have come to the right place.
You can play versatile instrument Stranger using ukulele or guitar.
This song by The Presidents of the United States of America can also be played by that instruments.
=

Stranger chords has rhythm and included in The Presidents of the United States of America (1995) album.
You can also find other musical genres, including jazz ukulele chords, country music ukulele chords, pop ukulele chords, world music ukulele chords, and rock ukulele chords here.

Stranger by The Presidents of the United States of America Ukulele Chords


PRESIDENTS OF THE USA – STRANGER
Drop D tuning

Verses (played twice for one measure):


------------------|
----6-------7---7-|
------------------|
5/6---6-6/8---8---|
------------------|
------------------|

Bassline:


---------------------|
---------------------|
---------------------|
---------------------|
---------------------|
0--3-2-3-2-0--3--3/5-|

Chorus:


-----------------|
-----------------|
--------5-4--7-5-|
5-3-5---5-4--7-5-|
5-3-5---3-2--5-3-|
5-3-5------------|

Solo bit:


-------------------------|
-------------------------|
5^6^5--3-1-3-1-3-3-------|
---------------3-3-1-0-3-|
-----------------------3-|
-------------------------|

Lyrics:

You lynard skynard hat
And me little kitty
Sat across with a velvet jacket
Wild orange hair and dark dark eyes
I gawked like a 12 year old smitten
Carla the stripper straight from LA
You seem cool for a naked chick in a booth
Let’s be pals someday in other words
Put some clothes on and call me

I saw you it was incredible

Slim relaxed buyin’ wine at the QFC
On a snowy saturday night
Black pearls and I swear you were drinking beer
You were the redhead behind the counter there
I’m the one who fell out of his chair there
You had your dry cleaning and I think you’re dreamy

I saw you it was incredible
Mumbled these words at you unintelligible



Ma ma ma ma ma ma hey you there what time is it

Notes:

This is arranged to be played with drop-D tuning so you don’t have to go
through the trouble of retuning your guitar. There’s another tab on this
site that seems to be rated well but it’s in weird tuning and I don’t have
time for that. As a result the bassline part doesn’t sound as low as it
should but I think it’s okay. The solo bit sounds okay although there may be
a mistake toward the end of the riff (again, sounds okay to me). Have fun!

To play the most songs, including Stranger by The Presidents of the United States of America by ukulele, the most crucial basic ukulele chords to learn are C chord, D chord, G chord, and Em chord.
These set you up to play a a lot of songs, and each of them is easy to learn.