If you are searching for Chapters ukulele chords, you have come to the right place.
You can play versatile instrument Chapters using ukulele or guitar.
This song by The Romantics can also be played by that instruments.
=

Chapters chords has Ballade rhythm and included in In Heat (1983) album.
You can also get other musical style, including jazz ukulele chords, country music ukulele chords, pop ukulele chords, world music ukulele chords, and rock ukulele chords here.

Chapters by The Romantics Ukulele Chords


[A-E-A-D-F#-B]

TABBED BY andherembrace

ADMINS-I’M AWARE THE TAB LOOKS MESSED UP IN THE ‘EDIT TAB ‘AREA
SINCE IT WAS COPY/PASTED FROM A NOTEPAD SESSION,
HOWEVER THIS SHOULD NOT EFFECT APPROVAL SINCE IT LOOKS FINE IN THE PREVIEW TAB
AREA,AND THATS HOW IT IS FEATURED ON THE SITE

L


-----------------------------------------------------------------------|
-----------------------------------------------------------------------|
-----------------------------------------------------------------------|
-----------------------------------------------------------------------|
-----------------------------------------------------------------------|
12--0-12-0-12-0-12-0-12-0-12-0-12-13-0-12-0-12-0-12-0-11-0-10-0-9-0---|

R 7TH


-------------------------------------------------------------------------|
----------------------------------------------------------------------X-X|
----------------------------------------------------------------------X-X|
----------------------------------------------------------------------X-X|
----------------------------------------------------------------------X-X|
12----------------------------------------------------------------------|

0:08


----------------------------------------------------------------------------------|
----------------------------------------------------------------------------------|
----------------------------------------------------------------------------------|
----------------------------------------------------------------------------------|
----------------------------------------------------------------------------13----|
12--0-12-0-12-0-12-0-12-0-12-0-12-13-0-12-0-12-0-12-0-12-0-12-0-12-0-12-13----12~|
----------------------------------------------------------------------------|
----------------------------------------------------------------------------|
----------------------------------------------------------------------------|
----------------------------------------------------------------------------|
----------------------------------------------------------------------------|
-0-12-0-12-0-12-0-12-0-12-0-12-13-0-12-0-12-0-12-0-12-0-17-15-0-15-13-0-10-|
----------------------------------------------------------------------------------|
----------------------------------------------------------------------------------|
----------------------------------------------------------------------------------|
----------------------------------------------------------------------------------|
----------------------------------------------------------------------------13----|
12--0-12-0-12-0-12-0-12-0-12-0-12-13-0-12-0-12-0-12-0-12-0-12-0-12-0-12-13----12~|
-------------------------------------------------------------------------|
-------------------------------------------------------------------------|
-------------------------------------------------------------------------|
-------------------------------------------------------------------------|
-------------------------------------------------------------------------|
-0-12-0-12-0-12-0-12-0-12-0-12-13-0-12-0-12-0-12-0-12-0-8-7-5-0-7-5-3-0-|

0:26


-----------------------------------------------------------------------|
-----------------------------------------------------------------------|
--------------------------------------------------------------------^--|
-----------------------------------------------^-------------17---15-19|
-5------5---5---5-------5----5/------12--12---8-10------15-------------|
--0-0-0---0---0---000-0---0------8-8---8----8------15-15--15---15------|

0:31
L


-----------------------------------------------------------------------|
-----------------------------------------------------------------------|
--------------------------------------------------------------------^--|
-----------------------------------------------^-------------17---15-19|
-5------5---5---5-------5----5/------12--12---8-10------15-------------|
--0-0-0---0---0---000-0---0------8-8---8----8------15-15--15---15------|

R


-----------------------------------------------------------------------|
-----------------------------------------------------------------------|
--------------------------------------------------------------------^--|
-------------------------------------------------------------17---15-19|
-5------5---5---5-------5----5/------8---8-----5/7-------15------------|
--0-0-0---0---0---000-0---0------8-8---8---8--------15-15--15---15-----|

L


-----------------------------------------------------------------------|
-----------------------------------------------------------------------|
--------------------------------------------------------------------^--|
-----------------------------------------------^-------------17---15-19|
-5------5---5---5-------5----5-5-----12--12---8-10------15-------------|
--0-0-0---0---0---000-0---0------8-8---8----8------15-15--15---15------|

-----------------------------------------------------------------------|
-----------------------------------------------------------------------|
-----------------------------------------------------------------------|
-----------------------------------------------------------------------|
-8------8---8---8-------8---8-8-------------8-8-8-----------3-3-3-----|
--0-0-0---0---0---000-0---0------------------8-8-8-----------3-3-3-----|

0:40
L


-----------------------------------------------------------------------|
-----------------------------------------------------------------------|
--------------------------------------------------------------------^--|
-----------------------------------------------^-------------17---15-19|
-5------5---5---5-------5----5/------12--12---8-10------15-------------|
--0-0-0---0---0---000-0---0------8-8---8----8------15-15--15---15------|

R


-----------------------------------------------------------------------|
-----------------------------------------------------------------------|
--------------------------------------------------------------------^--|
-------------------------------------------------------------17---15-19|
-8------8---8---8-------8----8------8---8----5/7--------15------------|
--0-0-0---0---0---000-0---0------8-8---8---8--------15-15--15---15-----|

0:46


----------17-17-17----------18-18-18-------17-17--|
-15-15-15----------15-15-15----------15-15--------|
--------------------------------------------------|
--------------------------------------------------|
--------------------------------------------------|
--------------------------------------------------|


-------------------------------------------------|
-------------------------------------------------|
-------------------------------------------------|
-15-15-15-15-15-15-15-15-15-15-15-15-15-15-14-14-|
-12-12-12-12-12-12-12-12-12-12-12-12-12-12-12-12-|
-12-12-12-12-12-12-12-12-12-12-12-12-12-12-12-12-|


----------17-17-17----------18-18-18-15-15-17-17--|
-15-15-15----------15-15-15-----------------------|
--------------------------------------------------|
--------------------------------------------------|
--------------------------------------------------|
--------------------------------------------------|


--------------------------------------------------|
--------------------------------------------------|
--------------------------------------------------|
-12-12-12-12-12-12-12-12-12-12-12-12-12-12-12-12--|
-10-10-10-10-10-10-10-10-10-10-10-10-10-10-10-10--|
-10-10-10-10-10-10-10-10-10-10-10-10-10-10-10-10--|

__
1 /


------171717------181818-1717-15-17-15-131313-151515-121212-131313--------|
151515------151515------------------------------------------------15151515|
--------------------------------------------------------------------------|
--------------------------------------------------------------------------|
--------------------------------------------------------------------------|
--------------------------------------------------------------------------|


--------------------------------------------------------------------|
--------------------------------------------------------------------|
--------------------------------------------------------------------|

-15151515151515151515151515151414-151515151515-14141414141415141414-|
-12121212121212121212121212121212-151515151515-10101010101010101010-|
-12121212121212121212121212121212-151515151515-10101010101010101010-|


----------17-17-17----------18-18-18-------17-17--|
-15-15-15----------15-15-15----------15-15--------|
--------------------------------------------------|
--------------------------------------------------|
--------------------------------------------------|
--------------------------------------------------|


-------------------------------------------------|
-------------------------------------------------|
-------------------------------------------------|
-15-15-15-15-15-15-15-15-15-15-15-15-15-15-14-14-|
-12-12-12-12-12-12-12-12-12-12-12-12-12-12-12-12-|
-12-12-12-12-12-12-12-12-12-12-12-12-12-12-12-12-|


----------17-17-17----------18-18-18-15-15-17-17--|
-15-15-15----------15-15-15-----------------------|
--------------------------------------------------|
--------------------------------------------------|
--------------------------------------------------|
--------------------------------------------------|


--------------------------------------------------|
--------------------------------------------------|
--------------------------------------------------|
-12-12-12-12-12-12-12-12-12-12-12-12-12-12-12-12--|
-10-10-10-10-10-10-10-10-10-10-10-10-10-10-10-10--|
-10-10-10-10-10-10-10-10-10-10-10-10-10-10-10-10--|

__
1 /


------171717------181818-1717-15-17-15-131313-151515-121212-131313--------|
151515------151515------------------------------------------------15151515|
--------------------------------------------------------------------------|
--------------------------------------------------------------------------|
--------------------------------------------------------------------------|
--------------------------------------------------------------------------|


---------------------------------------------------------------------|
---------------------------------------------------------------------|
---------------------------------------------------------------------|

-15151515151515151515151515151414-101010101010-121212121212-15141414-|


-12121212121212121212121212121212--8-8-8-8-8-8-101010101010-10101010-|
-12121212121212121212121212121212--8-8-8-8-8-8-101010101010-10101010-|

1:04


------13------13--------------11----------------|
--15------15------15-15-15-15----15------8------|
-------------------------------------10-----9---|
------------------------------------------------|
------------------------------------------------|
------------------------------------------------|


------------------------------------------------|
------------------------------------------------|
------------------------------------------------|
-15-----------------------0-0----0--------------|
-12-----------------------0-0----0--------------|
-12-----------------------0-0----0--------------|

1:10


------------------------------------------10--------------10----|
-------------------------------------------------------10-------|
------10-9-10-10------10-9-10-10-------10--------12-------------|
--7----------------7---------------8---------10-----10----------|
----------------------------------------------------------------|
----------------------------------------------------------------|


---------------------------------------------------------------|
---------------------------------------------------------------|
---------------------------------------------------------------|
--0--0-0---0-0----0--0-0---0-0---------------------------------|
--0--0-0---0-0----0--0-0---0-0---------------------------------|
--0--0-0---0-0----0--0-0---0-0---------------------------------|


------------------------------------------10--------------10----|
-------------------------------------------------------10-------|
------10-9-10-10------10-9-10-10-------10--------12-------------|
--7----------------7---------------8---------10-----10----------|
----------------------------------------------------------------|
----------------------------------------------------------------|


---------------------------------------------------------------|
---------------------------------------------------------------|
---------------------------------------------------------------|
--0--0-0---0-0----0--0-0---0-0---------------------------------|
--0--0-0---0-0----0--0-0---0-0---------------------------------|
--0--0-0---0-0----0--0-0---0-0---------------------------------|


------------------------------------------10--------------10----|
-------------------------------------------------------10-------|
------10-9-10-10------10-9-10-10-------10--------12-------------|
--7----------------7---------------8---------10-----10----------|
----------------------------------------------------------------|
----------------------------------------------------------------|


---------------------------------------------------------------|
---------------------------------------------------------------|
---------------------------------------------------------------|
--0--0-0---0-0----0--0-0---0-0--------------(10)---------------|
--0--0-0---0-0----0--0-0---0-0--------------(10)---------------|
--0--0-0---0-0----0--0-0---0-0--------------(10)---------------|

spm


------------------------------------------10--------------10----|
-------------------------------------------------------10-------|
------10-9-10-10------10-9-10-10-------10--------12-------------|
--7----------------7---------------8---------10-----10----------|
----------------------------------------------------------------|
----------------------------------------------------------------|


---------------------------------------------------------------|
---------------------------------------------------------------|
---------------------------------------------------------------|
--0--0-0---0-0----0--0-0---0-0--------------(10)---------------|
--0--0-0---0-0----0--0-0---0-0--------------(10)---------------|
--0--0-0---0-0----0--0-0---0-0--------------(10)---------------|

spm

1:29


--------------------------------------|
--------------------------------------|
--------------------------------------|
0-0-0-12-12-12-0-0-0-12-12-12-0-2-0-3-|
--------------------------------------|
--------------------------------------|


--------------------------------------|
--------------------------------------|
--------------------------------------|
-0------------------------------------|
-0------------------------------------|
-0------------------------------------|


--------------------------------------|
--------------------------------------|
--------------------------------------|
0-0-0-12-12-12-0-0-0-12-12-12-0-2-0-3-|
--------------------------------------|
--------------------------------------|


--------------------------------------|
--------------------------------------|
--------------------------------------|
-0------------------------------------|
-0------------------------------------|
-0------------------------------------|


--------------------------------------|
--------------------------------------|
--------------------------------------|
0-0-0-12-12-12-0-0-0-12-12-12-0-2-0-3-|
--------------------------------------|
--------------------------------------|


--------------------------------------|
--------------------------------------|
--------------------------------------|
-8-------------5----------------------|
-8-------------5----------------------|
-8-------------5----------------------|


--------------------------------------|
--------------------------------------|
--------------------------------------|
0-0-0-12-12-12-0-0-0-12-12-12-0-2-0-3-|
--------------------------------------|
--------------------------------------|


--------------------------------------|
--------------------------------------|
--------------------------------------|
-0------------------------------------|
-0------------------------------------|
-0------------------------------------|


--------------------------------------|
--------------------------------------|
--------------------------------------|
0-0-0-12-12-12-0-0-0-12-12-12-0-2-0-3-|
--------------------------------------|
--------------------------------------|


--------------------------------------|
--------------------------------------|
--------------------------------------|
-8----------88-12---------------------|
-8----------88-10---------------------|
-8----------88-10---------------------|

1:39

L


--------------------------------------|
--------------------------------------|
--------------------------------------|
0-0-0-12-12-12-0-0-0-12-12-12-0-2-0-3-|
--------------------------------------|
--------------------------------------|

R


-----------------------------------------|
-----------------------------------------|
--------------------------------14---12--|
0-0-0-15-15-15-0-0-0-15-15-15-0----0-----|
-----------------------------------------|
-----------------------------------------|

L


--------------------------------------|
--------------------------------------|
--------------------------------------|
0-0-0-12-12-12-0-0-0-12-12-12-0-2-0-3-|
--------------------------------------|
--------------------------------------|

R


-----------------------------------------|
-----------------------------------------|
------------------------------14---12----|
0-0-0-15-15-15-0-0-0-14-14-14----0----15-|
-----------------------------------------|
-----------------------------------------|

L


--------------------------------------|
--------------------------------------|
--------------------------------------|
0-0-0-12-12-12-0-0-0-12-12-12-0-2-0-3-|
--------------------------------------|
--------------------------------------|

R


-----------------------------------------|
-----------------------------------------|
--------------------------------14---12--|
0-0-0-15-15-15-0-0-0-15-15-15-0----0-----|
-----------------------------------------|
-----------------------------------------|

L


--------------------------------------|
--------------------------------------|
--------------------------------------|
0-0-0-12-12-12-0-0-0-12-12-12-0-2-0-3-|
--------------------------------------|
--------------------------------------|

R


-----------------------------------------|
-----------------------------------------|
------------------------------14---12----|
0-0-0-15-15-15-0-0-0-14-14-14----0----15-|
-----------------------------------------|
-----------------------------------------|

1:49


-------------------------------------------------------------------------|
-------------------------------------------------------------------------|
-------------------------------------------------------------------------|
-------------------------------------------------------------------------|
-13-12------13-12--------------------13-12------13-12-----17--15---------|
------12-0-------12-0---7-0-8-0-10-0------12-0-------12-0---14--14-17-14-|

-------------------------------------------------------------------------|
-------------------------------------------------------------------------|
-------------------------------------------------------------------------|
-------------------------------------------------------------------------|
-13-12------13-12--------------------13-12------13-12-----17--15---------|
------12-0-------12-0---7-0-8-0-10-0------12-0-------12-0---14--14-17-14-|

-------------------------------------------------------------------------|
-------------------------------------------------------------------------|
-------------------------------------------------------------------------|
-------------------------------------------------------------------------|
-13-12------13-12--------------------13-12------13-12-----17--15---------|
------12-0-------12-0---7-0-8-0-10-0------12-0-------12-0---14--14-17-14-|

-------------------------------------------------------------------------|
-------------------------------------------------------------------------|
-------------------------------------------------------------------------|
-------------------------------------------------------------------------|
-13-12------13-12--------------------13-12------13-12-----17--15---------|
------12-0-------12-0---7-0-8-0-10-0------12-0-------12-0---14--14-17-14-|

2:05


------171717------181818-----1717-------171717------181818-1515-1717--|
151515------151515------1515-----151515------151515-------------------|
----------------------------------------------------------------------|
----------------------------------------------------------------------|
----------------------------------------------------------------------|
----------------------------------------------------------------------|


--------------------------------------------------------|
--------------------------------------------------------|
---------------------------------------7----------------|
-8-8-8--8--8-8--8-8--888--8--8-8--8--8-8-000--000--000--|
-8-8-8--8--8-8--8-8--888--8--8-8--8--8---000--000--000--|
-8-8-8--8--8-8--8-8--888--8--8-8--8--8---000--000--000--|


------171717------181818-----1717-------171717--------|
151515------151515------1515-----151515------151515---|
------------------------------------------------------|
------------------------------------------------------|
------------------------------------------------------|
------------------------------------------------------|


----------------------------------------------------------|
----------------------------------------------------------|
----------------------------------------------------------|
-5-5-5--5--5-5--5-5--555--5--5-5--5--5-5------------------|
-5-5-5--5--5-5--5-5--555--5--5-5--5--5-5------------------|
-5-5-5--5--5-5--5-5--555--5--5-5--5--5-5--00000--0-0--0---|

2:15


----------17-17-17----------18-18-18-------17-17--|
-15-15-15----------15-15-15----------15-15--------|
--------------------------------------------------|
--------------------------------------------------|
--------------------------------------------------|
--------------------------------------------------|


-------------------------------------------------|
-------------------------------------------------|
-------------------------------------------------|
-15-15-15-15-15-15-15-15-15-15-15-15-15-15-14-14-|
-12-12-12-12-12-12-12-12-12-12-12-12-12-12-12-12-|
-12-12-12-12-12-12-12-12-12-12-12-12-12-12-12-12-|


----------17-17-17----------18-18-18-15-15-17-17--|
-15-15-15----------15-15-15-----------------------|
--------------------------------------------------|
--------------------------------------------------|
--------------------------------------------------|
--------------------------------------------------|


--------------------------------------------------|
--------------------------------------------------|
--------------------------------------------------|
-12-12-12-12-12-12-12-12-12-12-12-12-12-12-12-12--|
-10-10-10-10-10-10-10-10-10-10-10-10-10-10-10-10--|
-10-10-10-10-10-10-10-10-10-10-10-10-10-10-10-10--|

__
1 /


------171717------181818-1717-15-17-15-131313-151515-121212-131313--------|
151515------151515------------------------------------------------15151515|
--------------------------------------------------------------------------|
--------------------------------------------------------------------------|
--------------------------------------------------------------------------|
--------------------------------------------------------------------------|


--------------------------------------------------------------------|
--------------------------------------------------------------------|
--------------------------------------------------------------------|

-15151515151515151515151515151414-151515151515-14141414141415141414-|
-12121212121212121212121212121212-151515151515-10101010101010101010-|
-12121212121212121212121212121212-151515151515-10101010101010101010-|


----------17-17-17----------18-18-18-------17-17--|
-15-15-15----------15-15-15----------15-15--------|
--------------------------------------------------|
--------------------------------------------------|
--------------------------------------------------|
--------------------------------------------------|


-------------------------------------------------|
-------------------------------------------------|
-------------------------------------------------|
-15-15-15-15-15-15-15-15-15-15-15-15-15-15-14-14-|
-12-12-12-12-12-12-12-12-12-12-12-12-12-12-12-12-|
-12-12-12-12-12-12-12-12-12-12-12-12-12-12-12-12-|


----------17-17-17----------18-18-18-15-15-17-17--|
-15-15-15----------15-15-15-----------------------|
--------------------------------------------------|
--------------------------------------------------|
--------------------------------------------------|
--------------------------------------------------|


--------------------------------------------------|
--------------------------------------------------|
--------------------------------------------------|
-12-12-12-12-12-12-12-12-12-12-12-12-12-12-12-12--|
-10-10-10-10-10-10-10-10-10-10-10-10-10-10-10-10--|
-10-10-10-10-10-10-10-10-10-10-10-10-10-10-10-10--|

__
1 /


------171717------181818-1717-15-17-15-131313-151515-121212-131313--------|
151515------151515------------------------------------------------15151515|
--------------------------------------------------------------------------|
--------------------------------------------------------------------------|
--------------------------------------------------------------------------|
--------------------------------------------------------------------------|


---------------------------------------------------------------------|
---------------------------------------------------------------------|
---------------------------------------------------------------------|

-15151515151515151515151515151414-101010101010-10101010101010101010–|


-12121212121212121212121212121212--8-8-8-8-8-8--7-7-7-7-7-7-7-7-7-7--|
-12121212121212121212121212121212--8-8-8-8-8-8--7-7-7-7-7-7-7-7-7-7--|

2:35


---------------------------------------------------------------|
---------------------------------------------------------------|
---------------------------------------------------------------|
-0---------------------------------00000-0000-0----------------|
-0---------------------------------00000-0000-0----------------|
-0---------------------------------00000-0000-0----------------|

2:44


10-000-10-000-1111-1010-00-8-000-10-000-14-000-11-000-1414-1111-00-10-000|
-------------------------------------------------------------------------|
-------------------------------------------------------------------------|
-------------------------------------------------------------------------|
-------------------------------------------------------------------------|
-------------------------------------------------------------------------|


--------------------------------------------------|
--------------------------------------------------|
--------------------------------------------------|
00000--00000--0000000--00000--000-0--00000--00000-|
00000--00000--0000000--00000--000-0--00000--00000-|
00000--00000--0000000--00000--000-0--00000--00000-|


--10-000-11-000-11-000-8-000-8-000-|
-----------------------------------|
-----------------------------------|
-----------------------------------|
-----------------------------------|
-----------------------------------|


-----------------------------------|
-----------------------------------|
-----------------------------------|
-0000000--00000--000-0-------------|
-0000000--00000--000-0-------------|
-0000000--00000--000-0-------------|


10-000-10-000-1111-1010-00-8-000-10-000-14-000-11-000-1414-1111-00-10-000|
-------------------------------------------------------------------------|
-------------------------------------------------------------------------|
-------------------------------------------------------------------------|
-------------------------------------------------------------------------|
-------------------------------------------------------------------------|


--------------------------------------------------|
--------------------------------------------------|
--------------------------------------------------|
00000--00000--0000000--00000--000-0--00000--00000-|
00000--00000--0000000--00000--000-0--00000--00000-|
00000--00000--0000000--00000--000-0--00000--00000-|


--10-000-11-000-11-000-14-000-1414-1111-|
----------------------------------------|
----------------------------------------|
----------------------------------------|
----------------------------------------|
----------------------------------------|


-----------------------------------|
-----------------------------------|
-----------------------------------|
-0000000--00000--000-0-------------|
-0000000--00000--000-0-------------|
-0000000--00000--000-0-------------|


10-000-10-000-1111-1010-00-8-000-10-000-14-000-11-000-1414-1111-00-10-000|
-------------------------------------------------------------------------|
-------------------------------------------------------------------------|
-------------------------------------------------------------------------|
-------------------------------------------------------------------------|
-------------------------------------------------------------------------|


-----------------------------------------|
-----------------------------------------|
-----------------------------------------|
-----------------------------------------|
-----------------------------------------|
000-0-0/12-0-000--12-00-12-000-0-00/12---|


--10-000-11-000-11-000-8-000-8-000-|
-----------------------------------|
-----------------------------------|
-----------------------------------|
-----------------------------------|
-----------------------------------|


-----------------------------------------|
-----------------------------------------|
-----------------------------------------|
-----------------------------------------|
-----------------------------------------|
000-0-0/12-0-000--12-00-12-000-0-00-12/--|


10-000-10-000-1111-1010-00-8-000-10-000-14-000-11-000-1414-1111-00-10-000|
-------------------------------------------------------------------------|
-------------------------------------------------------------------------|
-------------------------------------------------------------------------|
-------------------------------------------------------------------------|
-------------------------------------------------------------------------|


-----------------------------------------|
-----------------------------------------|
-----------------------------------------|
-----------------------------------------|
-----------------------------------------|
000-0-0/12-0-000--12-00-12-000-0-00/12---|


--10-000-11-000-11-000-8-000-8-000-|
-----------------------------------|
-----------------------------------|
-----------------------------------|
-----------------------------------|
-----------------------------------|


-----------------------------------------|
-----------------------------------------|
-----------------------------------------|
-----------------------------------------|
-----------------------------------------|
000-0-0/12-0-000--12-00-12-000-0--0-0-0--|

3:05

w/wah almost closed


----------------------------------------|
----------------------------------------|
----------------------------------------|
-00000--00000--0000000--00000--000-0----|
-00000--00000--0000000--00000--000-0----|
-00000--00000--0000000--00000--000-0----|

--------------------------------------------|
--------------------------------------------|
--------------------------------------------|
-00000--00000--0000000--00000--0--0--0-0-0-0|
-00000--00000--0000000--00000--0--0--0-0-0-0|
-00000--00000--0000000--00000--0--0--0-0-0-0|

3:10


-----------------------------------------|
-----------------------------------------|
------------3----3----3----3----3--------|
-0----------0-00-0-00-0-00-0-00-0-000----|
-1----------0-00-0-00-0-00-0-00-0-000----|
-0----------0-00-0-00-0-00-0-00-0-000----|

-----------------------------------------------------------------------|
-----------------------------------------------------------------------|
------------------------------3----3----3----3----3--------------------|
-0-|--0-0-0---0-0-0-0---------0-00-0-00-0-00-0-00-0-000-0-|-0-0-0--0-0-|
-0-|--0-0-0---0-0-0-0--)(^----0-00-0-00-0-00-0-00-0-000-0-|-0-0-0--0-0-|
-0-|--0-0-0---0-0-0-0-1---0---0-00-0-00-0-00-0-00-0-000-0-|-0-0-0--0-0-|

----------------------------------------------------|
----------------------------------------------------|
----------------------------------------------------|
0------0--0--0--0--0---0-0--0-0-0--0-0-0-0-0--------|
0------0--0--0--0--0---0-0--0-0-0--0-0-0-0-0--------|
0------0--0--0--0--0---0-0--0-0-0--0-0-0-0-0--------|

------------------------------------|
------------------------------------|
------------------------------------|
-0--0--0--0--0---0-0--0-0-0--0-0----|
-0--0--0--0--0---0-0--0-0-0--0-0----|
-0--0--0--0--0---0-0--0-0-0--0-0----|

3:29
SOLO


-------------------------PH~~~-----------------------------------|
------/8--4--3/4-------4-3---------------------------------------|
-7~~-------------5-5---------------------------------SPH--------|
------------------------------------/7--5--7--8--7--5--4~~-------|
----------------------------------------------------------PH-----|
-----------------------------------------------------------3-V---|


-------------------------------------------------------------------------|
-------------------------------------------------------------------------|
-------------------------------------------------------------------------|
0-----0--0--0--0--0--0-0--0-0-0--0-0-0-----0--0--0--0--0--0-0--0-0-0--0-0|
0-----0--0--0--0--0--0-0--0-0-0--0-0-0-----0--0--0--0--0--0-0--0-0-0--0-0|
0-----0--0--0--0--0--0-0--0-0-0--0-0-0-----0--0--0--0--0--0-0--0-0-0--0-0|

3:38
_
1 / )(


-----------5-6-5-----5-6-8-6-8---6-8-6-5-6-5-------------------|
--/8~--6-8-------6-8---------PH--------------8-6---------------|
-------------------------------------------------5~~-----------|
-------------------------------------------------PH------------|
---------------------------------------------------------------|
---------------------------------------------------------------|


------------------------------------------------------------------------|
------------------------------------------------------------------------|
------------------------------------------------------------------------|
-----5---5------5---5---7-5-7/8-------12---12-----12-----19--15----20-19|
---8----------8--------------------10------------------17---------------|
-6-----6----6-----6--------------8-------8-----8-----15----15---15------|

3:42
________ _____
1 / )(/


-^---T---^---T---^---T---^---13-15-13-15/17-17---1513-15--T-^-----13----|
6-8-15--6-8-18--6-8-20--6-8-------------------------------18~-1311---10~|
----------------------------------------------------------------------SPH|
-------------------------------------------------------------------------|
-------------------------------------------------------------------------|
-------------------------------------------------------------------------|


--------------------------------------------------------------------|
--------------------------------------------------------------------|
--------------------------------------------------------------------|
-----5---5------5---5---7-5-7/8-------12---12-----12-----3---7-3-7/8|
---8----------8--------------------10-------------------------------|
-6-----6----6-----6--------------8-------8-----8-----3-3---3--------|

3:47

1 T ^ T ^ T ^ T ^ T ^ T ^


--15--3-6-15--3-6-15--3-6-15--3-6--22-3-6-18-3-6--|
--------------------------------------------------|
--------------------------------------------------|
--------------------------------------------------|
--------------------------------------------------|
--------------------------------------------------|


--------------------------------------------------|
--------------------------------------------------|
--------------------------------------------------|
-5---------------------------------8--------------|
-5---------------------------------8--------------|
-5---------------------------------8--------------|

3:49

1 T ^ T ^ T


--17--5-8-17--5-8--17-5--T---^----T---^----T---------|
------------------------18--6-10-18--6-10-18-6-/15~~-|
-----------------------------------------------------|
-----------------------------------------------------|
-----------------------------------------------------|
-----------------------------------------------------|


-----------------------------------------------------|
-----------------------------------------------------|
-----------------------------------------------------|
-3--------------------------------------------------|
-3--------------------------------------------------|
-3--------------------------------------------------|

3:51

L


--------------------------------------------------------|
--------------------------------------------------------|
---------------------------------------------------_----|
-0-0---0-0-0-0-0-7-0-------8-8--8--8--8--3-3--3---/ ---|
-0-0---0-0-0-0-0-8-0-------8-8--8--8--8--3-3--3--8-7-5--|
-0-0---0-0-0-0-0---0-------8-8--8--8--8--3-3--3---------|

R


--------------------------------------------------------|
--------------------------------------------------------|
--------------------------------------------------^-----|
-0-0---0-0-0-0-0-7-0-------8-8--8--8--8--3-3--3--7-5----|
-0-0---0-0-0-0-0-8-0-------8-8--8--8--8--3-3--3------8--|
-0-0---0-0-0-0-0---0-------8-8--8--8--8--3-3--3---------|


--------------------------------------------------------|
--------------------------------------------------------|
--------------------------------------------------------|
-0-0---0-0-0-0-0-7-0-------8-8--8--8--8--3-3--3--3-3-3--|
-0-0---0-0-0-0-0-8-0-------8-8--8--8--8--3-3--3--3-3-3--|
-0-0---0-0-0-0-0---0-------8-8--8--8--8--3-3--3--3-3-3--|

------------------------------------|
------------------------------------|
------------------------------------|
-0-0---0-0-0-0-0-0--0-------L-------|
-0-0---0-0-0-0-0-0--0--------H------|
-0-0---0-0-0-0-0-0--0--------2/-----|

S X8


--------------------------------------------------------|
--------------------------------------------------------|
--------------------------------------------------------|
-0-0---0-0-0-0-0-0--0------8-8--8--8--8--3-3--3--3-3-3--|
-0-0---0-0-0-0-0-0--0------8-8--8--8--8--3-3--3--3-3-3--|
-0-0---0-0-0-0-0-0--0------8-8--8--8--8--3-3--3--3-3-3--|

S

4:08

w/wah almost closed


---------------------------------------------------------|
---------------------------------------------------------|
-3-3---3-3-3-3-3-3--3------3-3--3--3--3--3-3--3--3-3-3---|
-0-0---0-0-0-0-0-0--0------0-0--0--0--0--0-0--0--0-0-0---|
-0-0---0-0-0-0-0-0--0------0-0--0--0--0--0-0--0--0-0-0---|
-0-0---0-0-0-0-0-0--0------0-0--0--0--0--0-0--0--0-0-0---|

---------------------------------------------------------|
---------------------------------------------------------|
-3-3---3-3-3-3-3-3--3------3-3--3--3--3--3-3--3--3-3-3---|
-0-0---0-0-0-0-0-0--0------0-0--0--0--0--0-0--0--0-0-0---|
-0-0---0-0-0-0-0-0--0------0-0--0--0--0--0-0--0--0-0-0---|
-0-0---0-0-0-0-0-0--0------0-0--0--0--0--0-0--0--0-0-0---|

4:18

L


---------------------------------------------|
---------------------------------------------|
---------------------------------------------|
-------12----12--------12--12---14-12-14-15--|
----15--------------15-----------------------|
-13------13------13-----13-------------------|

R


---------------------------------------------|
---------------------------------------------|
-----------------------14---14--17-14-17/19--|
-------15----12------------------------------|
----15--------------15-----------------------|
-13------13------13-----13-------------------|


--------------------------------------------------|
--------------------------------------------------|
---------------------------------------^----------|
-------19----19------19--------10----14-10-14/15--|
----17----------------------10--------------------|
-15-------15------15-----10-------10--------------|

L


---------------------------------------------|
---------------------------------------------|
---------------------------------------------|
-------12----12--------12--12---14-12-14-15--|
----15--------------15-----------------------|
-13------13------13-----13-------------------|

R


---------------------------------------------|
---------------------------------------------|
-----------------------14---14--17-14-17/19--|
-------15----12------------------------------|
----15--------------15-----------------------|
-13------13------13-----13-------------------|


--------------------------------------------------|
--------------------------------------------------|
---------------------------------------^----------|
-------19----19------19--------10----14-10-14/15--|
----17----------------------10--------------------|
-15-------15------15-----10-------10--------------|

4:25


----------------------------------------------------------------|
----------------------------------------------------------------|
----------------------------------------------------------------|
-----0---0------0---0--2-0-2/3------7---7----7------2---2---2/3-|
---3----------3-------------------5-------------3-3---3---3-----|
-1-----1----1-----1-------------3-----3----3--------------------|

---------------------------------------------------|

To play the most songs, including Chapters by The Romantics by ukulele, the most crucial basic ukulele chords to learn are C chord, D chord, G chord, and Em chord.
These set you up to play a ton of songs, and each of them is easy to master.

If you are searching for Chapters ukulele chords, you have visit to the right site.
You can play versatile instrument Chapters using ukulele or guitar.
This song by The Romantics can also be played by that instruments.
=

Chapters chords has Ballade rhythm and included in In Heat (1983) album.
You can also get another musical style, including jazz ukulele chords, country music ukulele chords, pop ukulele chords, world music ukulele chords, and rock ukulele chords here.

Chapters by The Romantics Ukulele Chords

[A-E-A-D-F#-B]

TABBED BY andherembrace

ADMINS-I’M AWARE THE TAB LOOKS MESSED UP IN THE ‘EDIT TAB ‘AREA
SINCE IT WAS COPY/PASTED FROM A NOTEPAD SESSION,
HOWEVER THIS SHOULD NOT EFFECT APPROVAL SINCE IT LOOKS FINE IN THE PREVIEW TAB
AREA,AND THATS HOW IT IS FEATURED ON THE SITE

L


-----------------------------------------------------------------------|
-----------------------------------------------------------------------|
-----------------------------------------------------------------------|
-----------------------------------------------------------------------|
-----------------------------------------------------------------------|
12--0-12-0-12-0-12-0-12-0-12-0-12-13-0-12-0-12-0-12-0-11-0-10-0-9-0---|

R 7TH


-------------------------------------------------------------------------|
----------------------------------------------------------------------X-X|
----------------------------------------------------------------------X-X|
----------------------------------------------------------------------X-X|
----------------------------------------------------------------------X-X|
12----------------------------------------------------------------------|

0:08


----------------------------------------------------------------------------------|
----------------------------------------------------------------------------------|
----------------------------------------------------------------------------------|
----------------------------------------------------------------------------------|
----------------------------------------------------------------------------13----|
12--0-12-0-12-0-12-0-12-0-12-0-12-13-0-12-0-12-0-12-0-12-0-12-0-12-0-12-13----12~|
----------------------------------------------------------------------------|
----------------------------------------------------------------------------|
----------------------------------------------------------------------------|
----------------------------------------------------------------------------|
----------------------------------------------------------------------------|
-0-12-0-12-0-12-0-12-0-12-0-12-13-0-12-0-12-0-12-0-12-0-17-15-0-15-13-0-10-|
----------------------------------------------------------------------------------|
----------------------------------------------------------------------------------|
----------------------------------------------------------------------------------|
----------------------------------------------------------------------------------|
----------------------------------------------------------------------------13----|
12--0-12-0-12-0-12-0-12-0-12-0-12-13-0-12-0-12-0-12-0-12-0-12-0-12-0-12-13----12~|
-------------------------------------------------------------------------|
-------------------------------------------------------------------------|
-------------------------------------------------------------------------|
-------------------------------------------------------------------------|
-------------------------------------------------------------------------|
-0-12-0-12-0-12-0-12-0-12-0-12-13-0-12-0-12-0-12-0-12-0-8-7-5-0-7-5-3-0-|

0:26


-----------------------------------------------------------------------|
-----------------------------------------------------------------------|
--------------------------------------------------------------------^--|
-----------------------------------------------^-------------17---15-19|
-5------5---5---5-------5----5/------12--12---8-10------15-------------|
--0-0-0---0---0---000-0---0------8-8---8----8------15-15--15---15------|

0:31
L


-----------------------------------------------------------------------|
-----------------------------------------------------------------------|
--------------------------------------------------------------------^--|
-----------------------------------------------^-------------17---15-19|
-5------5---5---5-------5----5/------12--12---8-10------15-------------|
--0-0-0---0---0---000-0---0------8-8---8----8------15-15--15---15------|

R


-----------------------------------------------------------------------|
-----------------------------------------------------------------------|
--------------------------------------------------------------------^--|
-------------------------------------------------------------17---15-19|
-5------5---5---5-------5----5/------8---8-----5/7-------15------------|
--0-0-0---0---0---000-0---0------8-8---8---8--------15-15--15---15-----|

L


-----------------------------------------------------------------------|
-----------------------------------------------------------------------|
--------------------------------------------------------------------^--|
-----------------------------------------------^-------------17---15-19|
-5------5---5---5-------5----5-5-----12--12---8-10------15-------------|
--0-0-0---0---0---000-0---0------8-8---8----8------15-15--15---15------|

-----------------------------------------------------------------------|
-----------------------------------------------------------------------|
-----------------------------------------------------------------------|
-----------------------------------------------------------------------|
-8------8---8---8-------8---8-8-------------8-8-8-----------3-3-3-----|
--0-0-0---0---0---000-0---0------------------8-8-8-----------3-3-3-----|

0:40
L


-----------------------------------------------------------------------|
-----------------------------------------------------------------------|
--------------------------------------------------------------------^--|
-----------------------------------------------^-------------17---15-19|
-5------5---5---5-------5----5/------12--12---8-10------15-------------|
--0-0-0---0---0---000-0---0------8-8---8----8------15-15--15---15------|

R


-----------------------------------------------------------------------|
-----------------------------------------------------------------------|
--------------------------------------------------------------------^--|
-------------------------------------------------------------17---15-19|
-8------8---8---8-------8----8------8---8----5/7--------15------------|
--0-0-0---0---0---000-0---0------8-8---8---8--------15-15--15---15-----|

0:46


----------17-17-17----------18-18-18-------17-17--|
-15-15-15----------15-15-15----------15-15--------|
--------------------------------------------------|
--------------------------------------------------|
--------------------------------------------------|
--------------------------------------------------|


-------------------------------------------------|
-------------------------------------------------|
-------------------------------------------------|
-15-15-15-15-15-15-15-15-15-15-15-15-15-15-14-14-|
-12-12-12-12-12-12-12-12-12-12-12-12-12-12-12-12-|
-12-12-12-12-12-12-12-12-12-12-12-12-12-12-12-12-|


----------17-17-17----------18-18-18-15-15-17-17--|
-15-15-15----------15-15-15-----------------------|
--------------------------------------------------|
--------------------------------------------------|
--------------------------------------------------|
--------------------------------------------------|


--------------------------------------------------|
--------------------------------------------------|
--------------------------------------------------|
-12-12-12-12-12-12-12-12-12-12-12-12-12-12-12-12--|
-10-10-10-10-10-10-10-10-10-10-10-10-10-10-10-10--|
-10-10-10-10-10-10-10-10-10-10-10-10-10-10-10-10--|

__
1 /


------171717------181818-1717-15-17-15-131313-151515-121212-131313--------|
151515------151515------------------------------------------------15151515|
--------------------------------------------------------------------------|
--------------------------------------------------------------------------|
--------------------------------------------------------------------------|
--------------------------------------------------------------------------|


--------------------------------------------------------------------|
--------------------------------------------------------------------|
--------------------------------------------------------------------|

-15151515151515151515151515151414-151515151515-14141414141415141414-|
-12121212121212121212121212121212-151515151515-10101010101010101010-|
-12121212121212121212121212121212-151515151515-10101010101010101010-|


----------17-17-17----------18-18-18-------17-17--|
-15-15-15----------15-15-15----------15-15--------|
--------------------------------------------------|
--------------------------------------------------|
--------------------------------------------------|
--------------------------------------------------|


-------------------------------------------------|
-------------------------------------------------|
-------------------------------------------------|
-15-15-15-15-15-15-15-15-15-15-15-15-15-15-14-14-|
-12-12-12-12-12-12-12-12-12-12-12-12-12-12-12-12-|
-12-12-12-12-12-12-12-12-12-12-12-12-12-12-12-12-|


----------17-17-17----------18-18-18-15-15-17-17--|
-15-15-15----------15-15-15-----------------------|
--------------------------------------------------|
--------------------------------------------------|
--------------------------------------------------|
--------------------------------------------------|


--------------------------------------------------|
--------------------------------------------------|
--------------------------------------------------|
-12-12-12-12-12-12-12-12-12-12-12-12-12-12-12-12--|
-10-10-10-10-10-10-10-10-10-10-10-10-10-10-10-10--|
-10-10-10-10-10-10-10-10-10-10-10-10-10-10-10-10--|

__
1 /


------171717------181818-1717-15-17-15-131313-151515-121212-131313--------|
151515------151515------------------------------------------------15151515|
--------------------------------------------------------------------------|
--------------------------------------------------------------------------|
--------------------------------------------------------------------------|
--------------------------------------------------------------------------|


---------------------------------------------------------------------|
---------------------------------------------------------------------|
---------------------------------------------------------------------|

-15151515151515151515151515151414-101010101010-121212121212-15141414-|


-12121212121212121212121212121212--8-8-8-8-8-8-101010101010-10101010-|
-12121212121212121212121212121212--8-8-8-8-8-8-101010101010-10101010-|

1:04


------13------13--------------11----------------|
--15------15------15-15-15-15----15------8------|
-------------------------------------10-----9---|
------------------------------------------------|
------------------------------------------------|
------------------------------------------------|


------------------------------------------------|
------------------------------------------------|
------------------------------------------------|
-15-----------------------0-0----0--------------|
-12-----------------------0-0----0--------------|
-12-----------------------0-0----0--------------|

1:10


------------------------------------------10--------------10----|
-------------------------------------------------------10-------|
------10-9-10-10------10-9-10-10-------10--------12-------------|
--7----------------7---------------8---------10-----10----------|
----------------------------------------------------------------|
----------------------------------------------------------------|


---------------------------------------------------------------|
---------------------------------------------------------------|
---------------------------------------------------------------|
--0--0-0---0-0----0--0-0---0-0---------------------------------|
--0--0-0---0-0----0--0-0---0-0---------------------------------|
--0--0-0---0-0----0--0-0---0-0---------------------------------|


------------------------------------------10--------------10----|
-------------------------------------------------------10-------|
------10-9-10-10------10-9-10-10-------10--------12-------------|
--7----------------7---------------8---------10-----10----------|
----------------------------------------------------------------|
----------------------------------------------------------------|


---------------------------------------------------------------|
---------------------------------------------------------------|
---------------------------------------------------------------|
--0--0-0---0-0----0--0-0---0-0---------------------------------|
--0--0-0---0-0----0--0-0---0-0---------------------------------|
--0--0-0---0-0----0--0-0---0-0---------------------------------|


------------------------------------------10--------------10----|
-------------------------------------------------------10-------|
------10-9-10-10------10-9-10-10-------10--------12-------------|
--7----------------7---------------8---------10-----10----------|
----------------------------------------------------------------|
----------------------------------------------------------------|


---------------------------------------------------------------|
---------------------------------------------------------------|
---------------------------------------------------------------|
--0--0-0---0-0----0--0-0---0-0--------------(10)---------------|
--0--0-0---0-0----0--0-0---0-0--------------(10)---------------|
--0--0-0---0-0----0--0-0---0-0--------------(10)---------------|

spm


------------------------------------------10--------------10----|
-------------------------------------------------------10-------|
------10-9-10-10------10-9-10-10-------10--------12-------------|
--7----------------7---------------8---------10-----10----------|
----------------------------------------------------------------|
----------------------------------------------------------------|


---------------------------------------------------------------|
---------------------------------------------------------------|
---------------------------------------------------------------|
--0--0-0---0-0----0--0-0---0-0--------------(10)---------------|
--0--0-0---0-0----0--0-0---0-0--------------(10)---------------|
--0--0-0---0-0----0--0-0---0-0--------------(10)---------------|

spm

1:29


--------------------------------------|
--------------------------------------|
--------------------------------------|
0-0-0-12-12-12-0-0-0-12-12-12-0-2-0-3-|
--------------------------------------|
--------------------------------------|


--------------------------------------|
--------------------------------------|
--------------------------------------|
-0------------------------------------|
-0------------------------------------|
-0------------------------------------|


--------------------------------------|
--------------------------------------|
--------------------------------------|
0-0-0-12-12-12-0-0-0-12-12-12-0-2-0-3-|
--------------------------------------|
--------------------------------------|


--------------------------------------|
--------------------------------------|
--------------------------------------|
-0------------------------------------|
-0------------------------------------|
-0------------------------------------|


--------------------------------------|
--------------------------------------|
--------------------------------------|
0-0-0-12-12-12-0-0-0-12-12-12-0-2-0-3-|
--------------------------------------|
--------------------------------------|


--------------------------------------|
--------------------------------------|
--------------------------------------|
-8-------------5----------------------|
-8-------------5----------------------|
-8-------------5----------------------|


--------------------------------------|
--------------------------------------|
--------------------------------------|
0-0-0-12-12-12-0-0-0-12-12-12-0-2-0-3-|
--------------------------------------|
--------------------------------------|


--------------------------------------|
--------------------------------------|
--------------------------------------|
-0------------------------------------|
-0------------------------------------|
-0------------------------------------|


--------------------------------------|
--------------------------------------|
--------------------------------------|
0-0-0-12-12-12-0-0-0-12-12-12-0-2-0-3-|
--------------------------------------|
--------------------------------------|


--------------------------------------|
--------------------------------------|
--------------------------------------|
-8----------88-12---------------------|
-8----------88-10---------------------|
-8----------88-10---------------------|

1:39

L


--------------------------------------|
--------------------------------------|
--------------------------------------|
0-0-0-12-12-12-0-0-0-12-12-12-0-2-0-3-|
--------------------------------------|
--------------------------------------|

R


-----------------------------------------|
-----------------------------------------|
--------------------------------14---12--|
0-0-0-15-15-15-0-0-0-15-15-15-0----0-----|
-----------------------------------------|
-----------------------------------------|

L


--------------------------------------|
--------------------------------------|
--------------------------------------|
0-0-0-12-12-12-0-0-0-12-12-12-0-2-0-3-|
--------------------------------------|
--------------------------------------|

R


-----------------------------------------|
-----------------------------------------|
------------------------------14---12----|
0-0-0-15-15-15-0-0-0-14-14-14----0----15-|
-----------------------------------------|
-----------------------------------------|

L


--------------------------------------|
--------------------------------------|
--------------------------------------|
0-0-0-12-12-12-0-0-0-12-12-12-0-2-0-3-|
--------------------------------------|
--------------------------------------|

R


-----------------------------------------|
-----------------------------------------|
--------------------------------14---12--|
0-0-0-15-15-15-0-0-0-15-15-15-0----0-----|
-----------------------------------------|
-----------------------------------------|

L


--------------------------------------|
--------------------------------------|
--------------------------------------|
0-0-0-12-12-12-0-0-0-12-12-12-0-2-0-3-|
--------------------------------------|
--------------------------------------|

R


-----------------------------------------|
-----------------------------------------|
------------------------------14---12----|
0-0-0-15-15-15-0-0-0-14-14-14----0----15-|
-----------------------------------------|
-----------------------------------------|

1:49


-------------------------------------------------------------------------|
-------------------------------------------------------------------------|
-------------------------------------------------------------------------|
-------------------------------------------------------------------------|
-13-12------13-12--------------------13-12------13-12-----17--15---------|
------12-0-------12-0---7-0-8-0-10-0------12-0-------12-0---14--14-17-14-|

-------------------------------------------------------------------------|
-------------------------------------------------------------------------|
-------------------------------------------------------------------------|
-------------------------------------------------------------------------|
-13-12------13-12--------------------13-12------13-12-----17--15---------|
------12-0-------12-0---7-0-8-0-10-0------12-0-------12-0---14--14-17-14-|

-------------------------------------------------------------------------|
-------------------------------------------------------------------------|
-------------------------------------------------------------------------|
-------------------------------------------------------------------------|
-13-12------13-12--------------------13-12------13-12-----17--15---------|
------12-0-------12-0---7-0-8-0-10-0------12-0-------12-0---14--14-17-14-|

-------------------------------------------------------------------------|
-------------------------------------------------------------------------|
-------------------------------------------------------------------------|
-------------------------------------------------------------------------|
-13-12------13-12--------------------13-12------13-12-----17--15---------|
------12-0-------12-0---7-0-8-0-10-0------12-0-------12-0---14--14-17-14-|

2:05


------171717------181818-----1717-------171717------181818-1515-1717--|
151515------151515------1515-----151515------151515-------------------|
----------------------------------------------------------------------|
----------------------------------------------------------------------|
----------------------------------------------------------------------|
----------------------------------------------------------------------|


--------------------------------------------------------|
--------------------------------------------------------|
---------------------------------------7----------------|
-8-8-8--8--8-8--8-8--888--8--8-8--8--8-8-000--000--000--|
-8-8-8--8--8-8--8-8--888--8--8-8--8--8---000--000--000--|
-8-8-8--8--8-8--8-8--888--8--8-8--8--8---000--000--000--|


------171717------181818-----1717-------171717--------|
151515------151515------1515-----151515------151515---|
------------------------------------------------------|
------------------------------------------------------|
------------------------------------------------------|
------------------------------------------------------|


----------------------------------------------------------|
----------------------------------------------------------|
----------------------------------------------------------|
-5-5-5--5--5-5--5-5--555--5--5-5--5--5-5------------------|
-5-5-5--5--5-5--5-5--555--5--5-5--5--5-5------------------|
-5-5-5--5--5-5--5-5--555--5--5-5--5--5-5--00000--0-0--0---|

2:15


----------17-17-17----------18-18-18-------17-17--|
-15-15-15----------15-15-15----------15-15--------|
--------------------------------------------------|
--------------------------------------------------|
--------------------------------------------------|
--------------------------------------------------|


-------------------------------------------------|
-------------------------------------------------|
-------------------------------------------------|
-15-15-15-15-15-15-15-15-15-15-15-15-15-15-14-14-|
-12-12-12-12-12-12-12-12-12-12-12-12-12-12-12-12-|
-12-12-12-12-12-12-12-12-12-12-12-12-12-12-12-12-|


----------17-17-17----------18-18-18-15-15-17-17--|
-15-15-15----------15-15-15-----------------------|
--------------------------------------------------|
--------------------------------------------------|
--------------------------------------------------|
--------------------------------------------------|


--------------------------------------------------|
--------------------------------------------------|
--------------------------------------------------|
-12-12-12-12-12-12-12-12-12-12-12-12-12-12-12-12--|
-10-10-10-10-10-10-10-10-10-10-10-10-10-10-10-10--|
-10-10-10-10-10-10-10-10-10-10-10-10-10-10-10-10--|

__
1 /


------171717------181818-1717-15-17-15-131313-151515-121212-131313--------|
151515------151515------------------------------------------------15151515|
--------------------------------------------------------------------------|
--------------------------------------------------------------------------|
--------------------------------------------------------------------------|
--------------------------------------------------------------------------|


--------------------------------------------------------------------|
--------------------------------------------------------------------|
--------------------------------------------------------------------|

-15151515151515151515151515151414-151515151515-14141414141415141414-|
-12121212121212121212121212121212-151515151515-10101010101010101010-|
-12121212121212121212121212121212-151515151515-10101010101010101010-|


----------17-17-17----------18-18-18-------17-17--|
-15-15-15----------15-15-15----------15-15--------|
--------------------------------------------------|
--------------------------------------------------|
--------------------------------------------------|
--------------------------------------------------|


-------------------------------------------------|
-------------------------------------------------|
-------------------------------------------------|
-15-15-15-15-15-15-15-15-15-15-15-15-15-15-14-14-|
-12-12-12-12-12-12-12-12-12-12-12-12-12-12-12-12-|
-12-12-12-12-12-12-12-12-12-12-12-12-12-12-12-12-|


----------17-17-17----------18-18-18-15-15-17-17--|
-15-15-15----------15-15-15-----------------------|
--------------------------------------------------|
--------------------------------------------------|
--------------------------------------------------|
--------------------------------------------------|


--------------------------------------------------|
--------------------------------------------------|
--------------------------------------------------|
-12-12-12-12-12-12-12-12-12-12-12-12-12-12-12-12--|
-10-10-10-10-10-10-10-10-10-10-10-10-10-10-10-10--|
-10-10-10-10-10-10-10-10-10-10-10-10-10-10-10-10--|

__
1 /


------171717------181818-1717-15-17-15-131313-151515-121212-131313--------|
151515------151515------------------------------------------------15151515|
--------------------------------------------------------------------------|
--------------------------------------------------------------------------|
--------------------------------------------------------------------------|
--------------------------------------------------------------------------|


---------------------------------------------------------------------|
---------------------------------------------------------------------|
---------------------------------------------------------------------|

-15151515151515151515151515151414-101010101010-10101010101010101010–|


-12121212121212121212121212121212--8-8-8-8-8-8--7-7-7-7-7-7-7-7-7-7--|
-12121212121212121212121212121212--8-8-8-8-8-8--7-7-7-7-7-7-7-7-7-7--|

2:35


---------------------------------------------------------------|
---------------------------------------------------------------|
---------------------------------------------------------------|
-0---------------------------------00000-0000-0----------------|
-0---------------------------------00000-0000-0----------------|
-0---------------------------------00000-0000-0----------------|

2:44


10-000-10-000-1111-1010-00-8-000-10-000-14-000-11-000-1414-1111-00-10-000|
-------------------------------------------------------------------------|
-------------------------------------------------------------------------|
-------------------------------------------------------------------------|
-------------------------------------------------------------------------|
-------------------------------------------------------------------------|


--------------------------------------------------|
--------------------------------------------------|
--------------------------------------------------|
00000--00000--0000000--00000--000-0--00000--00000-|
00000--00000--0000000--00000--000-0--00000--00000-|
00000--00000--0000000--00000--000-0--00000--00000-|


--10-000-11-000-11-000-8-000-8-000-|
-----------------------------------|
-----------------------------------|
-----------------------------------|
-----------------------------------|
-----------------------------------|


-----------------------------------|
-----------------------------------|
-----------------------------------|
-0000000--00000--000-0-------------|
-0000000--00000--000-0-------------|
-0000000--00000--000-0-------------|


10-000-10-000-1111-1010-00-8-000-10-000-14-000-11-000-1414-1111-00-10-000|
-------------------------------------------------------------------------|
-------------------------------------------------------------------------|
-------------------------------------------------------------------------|
-------------------------------------------------------------------------|
-------------------------------------------------------------------------|


--------------------------------------------------|
--------------------------------------------------|
--------------------------------------------------|
00000--00000--0000000--00000--000-0--00000--00000-|
00000--00000--0000000--00000--000-0--00000--00000-|
00000--00000--0000000--00000--000-0--00000--00000-|


--10-000-11-000-11-000-14-000-1414-1111-|
----------------------------------------|
----------------------------------------|
----------------------------------------|
----------------------------------------|
----------------------------------------|


-----------------------------------|
-----------------------------------|
-----------------------------------|
-0000000--00000--000-0-------------|
-0000000--00000--000-0-------------|
-0000000--00000--000-0-------------|


10-000-10-000-1111-1010-00-8-000-10-000-14-000-11-000-1414-1111-00-10-000|
-------------------------------------------------------------------------|
-------------------------------------------------------------------------|
-------------------------------------------------------------------------|
-------------------------------------------------------------------------|
-------------------------------------------------------------------------|


-----------------------------------------|
-----------------------------------------|
-----------------------------------------|
-----------------------------------------|
-----------------------------------------|
000-0-0/12-0-000--12-00-12-000-0-00/12---|


--10-000-11-000-11-000-8-000-8-000-|
-----------------------------------|
-----------------------------------|
-----------------------------------|
-----------------------------------|
-----------------------------------|


-----------------------------------------|
-----------------------------------------|
-----------------------------------------|
-----------------------------------------|
-----------------------------------------|
000-0-0/12-0-000--12-00-12-000-0-00-12/--|


10-000-10-000-1111-1010-00-8-000-10-000-14-000-11-000-1414-1111-00-10-000|
-------------------------------------------------------------------------|
-------------------------------------------------------------------------|
-------------------------------------------------------------------------|
-------------------------------------------------------------------------|
-------------------------------------------------------------------------|


-----------------------------------------|
-----------------------------------------|
-----------------------------------------|
-----------------------------------------|
-----------------------------------------|
000-0-0/12-0-000--12-00-12-000-0-00/12---|


--10-000-11-000-11-000-8-000-8-000-|
-----------------------------------|
-----------------------------------|
-----------------------------------|
-----------------------------------|
-----------------------------------|


-----------------------------------------|
-----------------------------------------|
-----------------------------------------|
-----------------------------------------|
-----------------------------------------|
000-0-0/12-0-000--12-00-12-000-0--0-0-0--|

3:05

w/wah almost closed


----------------------------------------|
----------------------------------------|
----------------------------------------|
-00000--00000--0000000--00000--000-0----|
-00000--00000--0000000--00000--000-0----|
-00000--00000--0000000--00000--000-0----|

--------------------------------------------|
--------------------------------------------|
--------------------------------------------|
-00000--00000--0000000--00000--0--0--0-0-0-0|
-00000--00000--0000000--00000--0--0--0-0-0-0|
-00000--00000--0000000--00000--0--0--0-0-0-0|

3:10


-----------------------------------------|
-----------------------------------------|
------------3----3----3----3----3--------|
-0----------0-00-0-00-0-00-0-00-0-000----|
-1----------0-00-0-00-0-00-0-00-0-000----|
-0----------0-00-0-00-0-00-0-00-0-000----|

-----------------------------------------------------------------------|
-----------------------------------------------------------------------|
------------------------------3----3----3----3----3--------------------|
-0-|--0-0-0---0-0-0-0---------0-00-0-00-0-00-0-00-0-000-0-|-0-0-0--0-0-|
-0-|--0-0-0---0-0-0-0--)(^----0-00-0-00-0-00-0-00-0-000-0-|-0-0-0--0-0-|
-0-|--0-0-0---0-0-0-0-1---0---0-00-0-00-0-00-0-00-0-000-0-|-0-0-0--0-0-|

----------------------------------------------------|
----------------------------------------------------|
----------------------------------------------------|
0------0--0--0--0--0---0-0--0-0-0--0-0-0-0-0--------|
0------0--0--0--0--0---0-0--0-0-0--0-0-0-0-0--------|
0------0--0--0--0--0---0-0--0-0-0--0-0-0-0-0--------|

------------------------------------|
------------------------------------|
------------------------------------|
-0--0--0--0--0---0-0--0-0-0--0-0----|
-0--0--0--0--0---0-0--0-0-0--0-0----|
-0--0--0--0--0---0-0--0-0-0--0-0----|

3:29
SOLO


-------------------------PH~~~-----------------------------------|
------/8--4--3/4-------4-3---------------------------------------|
-7~~-------------5-5---------------------------------SPH--------|
------------------------------------/7--5--7--8--7--5--4~~-------|
----------------------------------------------------------PH-----|
-----------------------------------------------------------3-V---|


-------------------------------------------------------------------------|
-------------------------------------------------------------------------|
-------------------------------------------------------------------------|
0-----0--0--0--0--0--0-0--0-0-0--0-0-0-----0--0--0--0--0--0-0--0-0-0--0-0|
0-----0--0--0--0--0--0-0--0-0-0--0-0-0-----0--0--0--0--0--0-0--0-0-0--0-0|
0-----0--0--0--0--0--0-0--0-0-0--0-0-0-----0--0--0--0--0--0-0--0-0-0--0-0|

3:38
_
1 / )(


-----------5-6-5-----5-6-8-6-8---6-8-6-5-6-5-------------------|
--/8~--6-8-------6-8---------PH--------------8-6---------------|
-------------------------------------------------5~~-----------|
-------------------------------------------------PH------------|
---------------------------------------------------------------|
---------------------------------------------------------------|


------------------------------------------------------------------------|
------------------------------------------------------------------------|
------------------------------------------------------------------------|
-----5---5------5---5---7-5-7/8-------12---12-----12-----19--15----20-19|
---8----------8--------------------10------------------17---------------|
-6-----6----6-----6--------------8-------8-----8-----15----15---15------|

3:42
________ _____
1 / )(/


-^---T---^---T---^---T---^---13-15-13-15/17-17---1513-15--T-^-----13----|
6-8-15--6-8-18--6-8-20--6-8-------------------------------18~-1311---10~|
----------------------------------------------------------------------SPH|
-------------------------------------------------------------------------|
-------------------------------------------------------------------------|
-------------------------------------------------------------------------|


--------------------------------------------------------------------|
--------------------------------------------------------------------|
--------------------------------------------------------------------|
-----5---5------5---5---7-5-7/8-------12---12-----12-----3---7-3-7/8|
---8----------8--------------------10-------------------------------|
-6-----6----6-----6--------------8-------8-----8-----3-3---3--------|

3:47

1 T ^ T ^ T ^ T ^ T ^ T ^


--15--3-6-15--3-6-15--3-6-15--3-6--22-3-6-18-3-6--|
--------------------------------------------------|
--------------------------------------------------|
--------------------------------------------------|
--------------------------------------------------|
--------------------------------------------------|


--------------------------------------------------|
--------------------------------------------------|
--------------------------------------------------|
-5---------------------------------8--------------|
-5---------------------------------8--------------|
-5---------------------------------8--------------|

3:49

1 T ^ T ^ T


--17--5-8-17--5-8--17-5--T---^----T---^----T---------|
------------------------18--6-10-18--6-10-18-6-/15~~-|
-----------------------------------------------------|
-----------------------------------------------------|
-----------------------------------------------------|
-----------------------------------------------------|


-----------------------------------------------------|
-----------------------------------------------------|
-----------------------------------------------------|
-3--------------------------------------------------|
-3--------------------------------------------------|
-3--------------------------------------------------|

3:51

L


--------------------------------------------------------|
--------------------------------------------------------|
---------------------------------------------------_----|
-0-0---0-0-0-0-0-7-0-------8-8--8--8--8--3-3--3---/ ---|
-0-0---0-0-0-0-0-8-0-------8-8--8--8--8--3-3--3--8-7-5--|
-0-0---0-0-0-0-0---0-------8-8--8--8--8--3-3--3---------|

R


--------------------------------------------------------|
--------------------------------------------------------|
--------------------------------------------------^-----|
-0-0---0-0-0-0-0-7-0-------8-8--8--8--8--3-3--3--7-5----|
-0-0---0-0-0-0-0-8-0-------8-8--8--8--8--3-3--3------8--|
-0-0---0-0-0-0-0---0-------8-8--8--8--8--3-3--3---------|


--------------------------------------------------------|
--------------------------------------------------------|
--------------------------------------------------------|
-0-0---0-0-0-0-0-7-0-------8-8--8--8--8--3-3--3--3-3-3--|
-0-0---0-0-0-0-0-8-0-------8-8--8--8--8--3-3--3--3-3-3--|
-0-0---0-0-0-0-0---0-------8-8--8--8--8--3-3--3--3-3-3--|

------------------------------------|
------------------------------------|
------------------------------------|
-0-0---0-0-0-0-0-0--0-------L-------|
-0-0---0-0-0-0-0-0--0--------H------|
-0-0---0-0-0-0-0-0--0--------2/-----|

S X8


--------------------------------------------------------|
--------------------------------------------------------|
--------------------------------------------------------|
-0-0---0-0-0-0-0-0--0------8-8--8--8--8--3-3--3--3-3-3--|
-0-0---0-0-0-0-0-0--0------8-8--8--8--8--3-3--3--3-3-3--|
-0-0---0-0-0-0-0-0--0------8-8--8--8--8--3-3--3--3-3-3--|

S

4:08

w/wah almost closed


---------------------------------------------------------|
---------------------------------------------------------|
-3-3---3-3-3-3-3-3--3------3-3--3--3--3--3-3--3--3-3-3---|
-0-0---0-0-0-0-0-0--0------0-0--0--0--0--0-0--0--0-0-0---|
-0-0---0-0-0-0-0-0--0------0-0--0--0--0--0-0--0--0-0-0---|
-0-0---0-0-0-0-0-0--0------0-0--0--0--0--0-0--0--0-0-0---|

---------------------------------------------------------|
---------------------------------------------------------|
-3-3---3-3-3-3-3-3--3------3-3--3--3--3--3-3--3--3-3-3---|
-0-0---0-0-0-0-0-0--0------0-0--0--0--0--0-0--0--0-0-0---|
-0-0---0-0-0-0-0-0--0------0-0--0--0--0--0-0--0--0-0-0---|
-0-0---0-0-0-0-0-0--0------0-0--0--0--0--0-0--0--0-0-0---|

4:18

L


---------------------------------------------|
---------------------------------------------|
---------------------------------------------|
-------12----12--------12--12---14-12-14-15--|
----15--------------15-----------------------|
-13------13------13-----13-------------------|

R


---------------------------------------------|
---------------------------------------------|
-----------------------14---14--17-14-17/19--|
-------15----12------------------------------|
----15--------------15-----------------------|
-13------13------13-----13-------------------|


--------------------------------------------------|
--------------------------------------------------|
---------------------------------------^----------|
-------19----19------19--------10----14-10-14/15--|
----17----------------------10--------------------|
-15-------15------15-----10-------10--------------|

L


---------------------------------------------|
---------------------------------------------|
---------------------------------------------|
-------12----12--------12--12---14-12-14-15--|
----15--------------15-----------------------|
-13------13------13-----13-------------------|

R


---------------------------------------------|
---------------------------------------------|
-----------------------14---14--17-14-17/19--|
-------15----12------------------------------|
----15--------------15-----------------------|
-13------13------13-----13-------------------|


--------------------------------------------------|
--------------------------------------------------|
---------------------------------------^----------|
-------19----19------19--------10----14-10-14/15--|
----17----------------------10--------------------|
-15-------15------15-----10-------10--------------|

4:25


----------------------------------------------------------------|
----------------------------------------------------------------|
----------------------------------------------------------------|
-----0---0------0---0--2-0-2/3------7---7----7------2---2---2/3-|
---3----------3-------------------5-------------3-3---3---3-----|
-1-----1----1-----1-------------3-----3----3--------------------|

---------------------------------------------------|

To play the most songs, including Chapters by The Romantics by ukulele, the most crucial basic ukulele chords to learn are C chord, D chord, G chord, and Em chord.
These set you up to play a ton of songs, and each of them is easy to learn.

If you are looking for Rock You Up ukulele chords, you already visit to the right site.
You can play versatile instrument Rock You Up using ukulele or guitar.
This song by The Romantics can also be played by that instruments.
=

Rock You Up chords has rhythm and included in In Heat (1983) album.
You can also find other musical genres, including jazz ukulele chords, country music ukulele chords, pop ukulele chords, world music ukulele chords, and rock ukulele chords here.

Rock You Up by The Romantics Ukulele Chords


Intro, Verse and Chorus

————————————————————|
——————–11–11———————-11–11——|
—————10—10–10————–10——10–10——|
–10–10–10—10—8—8——–10—–10——8—8——-|
–10–10–10—-8—————-8——8——————-|
–8—8—8———————-8————————–|

Pre Chorus

————————————————————|
————————————————————|
—3———————-3———————————|
—3———–3———-3———-3———————-|
—1———–3———-1———-3———————-|
—————1———————1———————-|

Bridge

G|—8————–8———————–3——————|
D|—8——8——-8——-8——-3——-3——–3——-5-|
A|—6——8——-6——-8——-3——-1——–3——-5-|
E|———-6—————6——-1—————-1——-3-|

To play the most songs, including Rock You Up by The Romantics by ukulele, the most important basic ukulele chords to learn are C chord, D chord, G chord, and Em chord.
These set you up to play a ton of songs, and each of them is easy to master.

If you are searching for Respite ukulele chords, you’ve visit to the right site.
You can play versatile instrument Respite using ukulele or guitar.
This song by The Romantics can also be played by that instruments.
=

Respite chords has Ballade rhythm and included in In Heat (1983) album.
You can also find another musical style, including jazz ukulele chords, country music ukulele chords, pop ukulele chords, world music ukulele chords, and rock ukulele chords here.

Respite by The Romantics Ukulele Chords


Guitar 1 – accoustic part


E||--------------------------|-----------5--L-----6-----|
B||--------------------6-----|--------------------------|
G||-----------------7-----7--|--------0-----0--L-----0--|
D||--------0-----0-----------|-----0--------------------|
A||-----3-----6--------------|--------------------------|
D||--3-----------------------|--5-----------------------|


--------------------------|--------------------------|
--------------------6-----|--------------------------|
-----------------7-----7--|--------7-----------7-----|
--------0-----0-----------|-----0-----0-----0-----0--|
-----3-----6--------------|--5-----------5-----------|
--3-----------------------|--------------------------|


--------------------------|-----------5--L-----6-----|
--------------------6-----|--------------------------|
-----------------7-----7--|--------0-----0--L-----0--|
--------0-----0-----------|-----0--------------------|
-----3-----6--------------|--------------------------|
--3-----------------------|--5-----------------------|

E E E E E E E E E E E E S S S S E E


--------------------------|------------------------------|
--------------------6-----|------------------------------|
-----------------7-----7--|--------7---------------7-----|
--------0-----0-----------|-----0-----0--------0-L----0--|
-----3-----6--------------|--5-----------5h-6p-5---------|
--3-----------------------|------------------------------|


--------------------------|-----------5--L-----6-----|
--------------------6-----|--------------------------|
-----------------7-----7--|--------0-----0--L-----0--|
--------0-----0-----------|-----0--------------------|
-----3-----6--------------|--------------------------|
--3-----------------------|--5-----------------------|


--------------------------|--------------------------|
--------------------6-----|--------------------------|
-----------------7-----7--|--------7-----------7-----|
--------0-----0-----------|-----0-----0-----0-----0--|
-----3-----6--------------|--5-----------5-----------|
--3-----------------------|--------------------------|


--------------------------|-----------5--L-----6-----|
--------------------6-----|--------------------------|
-----------------7-----7--|--------0-----0--L-----0--|
--------0-----0-----------|-----0--------------------|
-----3-----6--------------|--------------------------|
--3-----------------------|--5-----------------------|

E E E E E E E E E E E E S S S S E E


--------------------------|------------------------------|
--------------------6-----|------------------------------|
-----------------7-----7--|--------7---------------7-----|
--------0-----0-----------|-----0-----0--------0-L----0--|
-----3-----6--------------|--5-----------5h-6p-5---------|
--3-----------------------|------------------------------|


--------------------------|--------------------------|-----|-----|
--------------------------|--------------------------|-----|-----|
--------3-----------3-----|--------3-----------2-----|-----|-----|
-----0-----0-----0-----0--|-----0-----0-----0-----0--|-----|-----|
--1-----------1-----------|--0-----------0-----------|-----|-----|
--------------------------|--------------------------|-----|-----|


--------------------------|--------------------------|-----|-----|
--------------------------|--------------------------|-----|-----|
--------3-----------3-----|--------2-----0--------0--|-----|-----|
-----0-----0-----0-----0--|-----0-----0--------3-----|-----|-----|
--1-----------1-----------|--0--------------5--------|-----|-----|
--------------------------|--------------------------|-----|-----|


--------------------------|-----------5--L-----6-----|
--------------------6-----|--------------------------|
-----------------7-----7--|--------0-----0--L-----0--|
--------0-----0-----------|-----0--------------------|
-----3-----6--------------|--------------------------|
--3-----------------------|--5-----------------------|


--------------------------|--------------------------|
--------------------6-----|--------------------------|
-----------------7-----7--|--------7-----------7-----|
--------0-----0-----------|-----0-----0-----0-----0--|
-----3-----6--------------|--5-----------5-----------|
--3-----------------------|--------------------------|


--------------------------|-----------5--L-----6-----|
--------------------6-----|--------------------------|
-----------------7-----7--|--------0-----0--------0--|
--------0-----0-----------|-----0-----------0--------|
-----3-----6--------------|--------------------------|
--3-----------------------|--5-----------------------|


--------------------------|--------------------------|
--------------------6-----|--------------------------|
-----------------7-----7--|--------7-----------7-----|
--------0-----0-----------|-----0-----0-----0-----0--|
-----3-----6--------------|--5-----------5-----------|
--3-----------------------|--------------------------|

E E E E S S S S E E E E E E E E E E


------------------------------|--------------------------|
------------------------------|--------------------------|
--------7---------------7-----|--------7-----------7-----|
-----0-----0--------0-L----0--|-----0-----0-----0-----0--|
--5-----------5h-6p-5---------|--5-----------5-----------|
------------------------------|--------------------------|

E E E E S S S S E E E E E E E E E E


------------------------------|--------------------------|
------------------------------|--------------------------|
--------7---------------7-----|--------0-----------0-----|
-----0-----0--------0-L----0--|-----5-----5-----5-----5--|
--5-----------5h-6p-5---------|--6-----------6-----------|
------------------------------|--------------------------|


--------------------------|--------------------------|
--------------------------|--------------------------|
--------3-----------3-----|--------7-----------7-----|
-----7-----7-----7-----7--|-----8-----8-----8-----8--|
--0-----------0-----------|--------------------------|
--------------------------|--8-----------8-----------|


---------------------------|--------------------------|
---------------------------|--------------------------|
--------7-----5-----10-----|--------0-----------0-----|
-----0-----0-----0------0--|-----5-----5-----5-----5--|
---------------------------|--6-----------6-----------|
--0------------------------|--------------------------|


--------------------------|--------------------------|
--------------------------|--------------------------|
--------3-----------3-----|--------7-----------7-----|
-----7-----7-----7-----7--|-----8-----8-----8-----8--|
--0-----------0-----------|--------------------------|
--------------------------|--8-----------8-----------|


--------------------------|--------------------------|
--------------------------|--------------------------|
--------7-----5-----3-----|--------0-----------0-----|
-----0-----0-----0-----0--|-----5-----5-----5-----5--|
--------------------------|--6-----------6-----------|
--0-----------------------|--------------------------|


--------------------------|--------------------------|
--------------------------|--------------6-----------|
--------3-----------3-----|--------7-----------7-----|
-----7-----7-----7-----7--|-----8-----8-----8-----8--|
--0-----------0-----------|--------------------------|
--------------------------|--8-----------------------|


---------------------------|--------------------------|
---------------------------|--------------------------|
--------7-----5-----10-----|--------0-----------0-----|
-----0-----0-----0------0--|-----5-----5-----5-----5--|
---------------------------|--6-----------6-----------|
--0------------------------|--------------------------|


--------------------------|--------------------------|
--------------------------|--------------------------|
--------3-----------3-----|--------7-----------7-----|
-----7-----7-----7-----7--|-----8-----8-----8-----8--|
--0-----------0-----------|--------------------------|
--------------------------|--8-----------8-----------|


--------------------------|-----|-----|-----|-----|-----|-----|-----|-----|
--------------------------|-----|-----|-----|-----|-----|-----|-----|-----|
--------7-----5-----3-----|-----|-----|-----|-----|-----|-----|-----|-----|
-----0-----0-----0-----0--|-----|-----|-----|-----|-----|-----|-----|-----|
--------------------------|-----|-----|-----|-----|-----|-----|-----|-----|
--0-----------------------|-----|-----|-----|-----|-----|-----|-----|-----|
-----|-----|-----|-----|-----|-----|-----|-----|-----|-----|-----|-----|-----|
-----|-----|-----|-----|-----|-----|-----|-----|-----|-----|-----|-----|-----|
-----|-----|-----|-----|-----|-----|-----|-----|-----|-----|-----|-----|-----|
-----|-----|-----|-----|-----|-----|-----|-----|-----|-----|-----|-----|-----|
-----|-----|-----|-----|-----|-----|-----|-----|-----|-----|-----|-----|-----|
-----|-----|-----|-----|-----|-----|-----|-----|-----|-----|-----|-----|-----|
-----|-----|-----|-----|-----|-----|-----|-----|-----|-----|-----|-----|-----|
-----|-----|-----|-----|-----|-----|-----|-----|-----|-----|-----|-----|-----|
-----|-----|-----|-----|-----|-----|-----|-----|-----|-----|-----|-----|-----|
-----|-----|-----|-----|-----|-----|-----|-----|-----|-----|-----|-----|-----|
-----|-----|-----|-----|-----|-----|-----|-----|-----|-----|-----|-----|-----|
-----|-----|-----|-----|-----|-----|-----|-----|-----|-----|-----|-----|-----|
-----|-----|-----|-----|-----|-----|-----||
-----|-----|-----|-----|-----|-----|-----||
-----|-----|-----|-----|-----|-----|-----||
-----|-----|-----|-----|-----|-----|-----||
-----|-----|-----|-----|-----|-----|-----||
-----|-----|-----|-----|-----|-----|-----||

Guitar 2 – Electric part


E||-------|-------|-------|-------|-------|-------|-------|-------|-------|
B||-------|-------|-------|-------|-------|-------|-------|-------|-------|
G||-------|-------|-------|-------|-------|-------|-------|-------|-------|
D||-------|-------|-------|-------|-------|-------|-------|-------|-------|
A||-------|-------|-------|-------|-------|-------|-------|-------|-------|
D||-------|-------|-------|-------|-------|-------|-------|-------|-------|
-------|-------|-------|-------|-------|-------|-------|-------|-------|
-------|-------|-------|-------|-------|-------|-------|-------|-------|
-------|-------|-------|-------|-------|-------|-------|-------|-------|
-------|-------|-------|-------|-------|-------|-------|-------|-------|
-------|-------|-------|-------|-------|-------|-------|-------|-------|
-------|-------|-------|-------|-------|-------|-------|-------|-------|


-----------------------|-----------------------|-------|-------|
-----------------------|-----------------------|-------|-------|
-----------------------|-----------------------|-------|-------|
--3--3--3--0--L--------|--3--3--3--0--L--------|-------|-------|
--3--3--3--0--L--------|--3--3--3--0--L--------|-------|-------|
--3--3--3--0--L--------|--3--3--3--0--L--------|-------|-------|


-----------------------|-----------------------|-------|-------|-------|-------|
-----------------------|-----------------------|-------|-------|-------|-------|
-----------------------|-----------------------|-------|-------|-------|-------|
--3--3--3--0--L--------|--3--3--3--0--L--------|-------|-------|-------|-------|
--3--3--3--0--L--------|--3--3--3--0--L--------|-------|-------|-------|-------|
--3--3--3--0--L--------|--3--3--3--0--L--------|-------|-------|-------|-------|
-------|-------|-------|-------|-------|-------|-------|-------|-------|-------|
-------|-------|-------|-------|-------|-------|-------|-------|-------|-------|
-------|-------|-------|-------|-------|-------|-------|-------|-------|-------|
-------|-------|-------|-------|-------|-------|-------|-------|-------|-------|
-------|-------|-------|-------|-------|-------|-------|-------|-------|-------|
-------|-------|-------|-------|-------|-------|-------|-------|-------|-------|
-------|-------|-------|-------|-------|-------|-------|-------|-------|-------|
-------|-------|-------|-------|-------|-------|-------|-------|-------|-------|
-------|-------|-------|-------|-------|-------|-------|-------|-------|-------|
-------|-------|-------|-------|-------|-------|-------|-------|-------|-------|
-------|-------|-------|-------|-------|-------|-------|-------|-------|-------|
-------|-------|-------|-------|-------|-------|-------|-------|-------|-------|


-------|-------|-------|--------------------------|--------------------------|
-------|-------|-------|--------------------------|--------------------------|
-------|-------|-------|--------------------------|--------------------------|
-------|-------|-------|--8--8--8--8--8--7--5--8--|--7--0--0--0--0--0--0--0--|
-------|-------|-------|--8--8--8--8--8--7--5--8--|--7--0--0--0--0--0--0--0--|
-------|-------|-------|--8--8--8--8--8--7--5--8--|--7--0--0--0--0--0--0--0--|


--------------------------|--------------------------|
--------------------------|--------------------------|
--------------------------|--------------------------|
--8--8--8--8--8--7--5--8--|--7--0--0--0--0--0--0--0--|
--8--8--8--8--8--7--5--8--|--7--0--0--0--0--0--0--0--|
--8--8--8--8--8--7--5--8--|--7--0--0--0--0--0--0--0--|


--------------------------|--------------------------|
--------------------------|--------------------------|
--------------------------|--------------------------|
--8--8--8--8--8--7--5--8--|--7--0--0--0--0--0--0--0--|
--8--8--8--8--8--7--5--8--|--7--0--0--0--0--0--0--0--|
--8--8--8--8--8--7--5--8--|--7--0--0--0--0--0--0--0--|


--------------------------|--------------------------|
--------------------------|--------------------------|
--------------------------|--------------------------|
--8--8--8--8--8--7--5--8--|--7--0--0--0--0--0--0--0--|
--8--8--8--8--8--7--5--8--|--7--0--0--0--0--0--0--0--|
--8--8--8--8--8--7--5--8--|--7--0--0--0--0--0--0--0--|


--------------------------|--------------------------|
--------------------------|--------------------------|
--------------------------|--------------------------|
--8--8--8--8--8--7--5--8--|--7--0--0--0--0--0--0--0--|
--8--8--8--8--8--7--5--8--|--7--0--0--0--0--0--0--0--|
--8--8--8--8--8--7--5--8--|--7--0--0--0--0--0--0--0--|


--------------------------|--------------------------|
--------------------------|--------------------------|
--------------------------|--------------------------|
--8--8--8--8--8--7--5--8--|--7--0--0--0--0--0--0--0--|
--8--8--8--8--8--7--5--8--|--7--0--0--0--0--0--0--0--|
--8--8--8--8--8--7--5--8--|--7--0--0--0--0--0--0--0--|


--------------------------|--------------------------|
--------------------------|--------------------------|
--------------------------|--------------------------|
--8--8--8--8--8--7--5--8--|--7--0--0--0--0--0--0--0--|
--8--8--8--8--8--7--5--8--|--7--0--0--0--0--0--0--0--|
--8--8--8--8--8--7--5--8--|--7--0--0--0--0--0--0--0--|


--------------------------|--------------------------|
--------------------------|--------------------------|
--------------------------|--------------------------|
--8--8--8--8--8--7--5--8--|--7--0--0--0--0--0--0--0--|
--8--8--8--8--8--7--5--8--|--7--0--0--0--0--0--0--0--|
--8--8--8--8--8--7--5--8--|--7--0--0--0--0--0--0--0--|


--------------------------|--------------------------|
--------------------------|--------------------------|
--------------------------|--------------------------|
--8--8--8--8--8--7--5--8--|--7--0--0--0--0--0--0--0--|
--8--8--8--8--8--7--5--8--|--7--0--0--0--0--0--0--0--|
--8--8--8--8--8--7--5--8--|--7--0--0--0--0--0--0--0--|


--------------------------|--------------------------|
--------------------------|--------------------------|
--------------------------|--------------------------|
--8--8--8--8--8--7--5--8--|--7--0--0--0--0--0--0--0--|
--8--8--8--8--8--7--5--8--|--7--0--0--0--0--0--0--0--|
--8--8--8--8--8--7--5--8--|--7--0--0--0--0--0--0--0--|


--------------------------|--------------------------|
--------------------------|--------------------------|
--------------------------|--------------------------|
--8--8--8--8--8--7--5--8--|--7--0--0--0--0--0--0--0--|
--8--8--8--8--8--7--5--8--|--7--0--0--0--0--0--0--0--|
--8--8--8--8--8--7--5--8--|--7--0--0--0--0--0--0--0--|


--------------------------|--------------------------|
--------------------------|--------------------------|
--------------------------|--------------------------|
--8--8--8--8--8--7--5--8--|--7--0--0--0--0--0--0--0--|
--8--8--8--8--8--7--5--8--|--7--0--0--0--0--0--0--0--|
--8--8--8--8--8--7--5--8--|--7--0--0--0--0--0--0--0--|


--------------------------|--------------------------|
--------------------------|--------------------------|
--------------------------|--------------------------|
--8--8--8--8--8--7--5--8--|--7--0--0--0--0--0--0--0--|
--8--8--8--8--8--7--5--8--|--7--0--0--0--0--0--0--0--|
--8--8--8--8--8--7--5--8--|--7--0--0--0--0--0--0--0--|


--------------------------|--------------------------|
--------------------------|--------------------------|
--------------------------|--------------------------|
--8--8--8--8--8--7--5--8--|--7--0--0--0--0--0--0--0--|
--8--8--8--8--8--7--5--8--|--7--0--0--0--0--0--0--0--|
--8--8--8--8--8--7--5--8--|--7--0--0--0--0--0--0--0--|


--------------------------|--------------------------|
--------------------------|--------------------------|
--------------------------|--------------------------|
--8--8--8--8--8--7--5--8--|--7--0--0--0--0--0--0--0--|
--8--8--8--8--8--7--5--8--|--7--0--0--0--0--0--0--0--|
--8--8--8--8--8--7--5--8--|--7--0--0--0--0--0--0--0--|


--------------------------|--------------------------|
--------------------------|--------------------------|
--------------------------|--------------------------|
--8--8--8--8--8--7--5--8--|--7--0--0--0--0--0--0--0--|
--8--8--8--8--8--7--5--8--|--7--0--0--0--0--0--0--0--|
--8--8--8--8--8--7--5--8--|--7--0--0--0--0--0--0--0--|


--------------------------|--------------------------|
--------------------------|--------------------------|
--------------------------|--------------------------|
--8--8--8--8--8--7--5--8--|--7--0--0--0--0--0--0--0--|
--8--8--8--8--8--7--5--8--|--7--0--0--0--0--0--0--0--|
--8--8--8--8--8--7--5--8--|--7--0--0--0--0--0--0--0--|


--------------------------|--------------------------|
--------------------------|--------------------------|
--------------------------|--------------------------|
--8--8--8--8--8--7--5--8--|--7--0--0--0--0--0--0--0--|
--8--8--8--8--8--7--5--8--|--7--0--0--0--0--0--0--0--|
--8--8--8--8--8--7--5--8--|--7--0--0--0--0--0--0--0--|


--------------------------|--------------------------|-----|-----|-----||
--------------------------|--------------------------|-----|-----|-----||
--------------------------|--------------------------|-----|-----|-----||
--8--8--8--8--8--7--5--8--|--7--0--0--0--0--0--0--0--|-----|-----|-----||
--8--8--8--8--8--7--5--8--|--7--0--0--0--0--0--0--0--|-----|-----|-----||
--8--8--8--8--8--7--5--8--|--7--0--0--0--0--0--0--0--|-----|-----|-----||

Duration Legend


---------------

W – whole
H – half
Q – quarter
E – 8th
S – 16th
T – 32nd
X – 64th

Tablature Legend


----------------

L – tied note
NH – natural harmonic
AH – artificial harmonic
h – hammer on
p – pull off
b – bend
/ – slide into from below or out of upwards
– slide into from above or out of downwards

To play the most songs, including Respite by The Romantics by ukulele, the most crucial basic ukulele chords to learn are C chord, D chord, G chord, and Em chord.
These set you up to play a many of songs, and each of them is easy to master.

If you are looking for Slayer of Light ukulele chords, you’ve come to the right place.
You can play versatile instrument Slayer of Light using ukulele or guitar.
This song by The Romantics can also be played by that instruments.
=

Slayer of Light chords has Ballade rhythm and included in In Heat (1983) album.
You can also get another musical style, including jazz ukulele chords, country music ukulele chords, pop ukulele chords, world music ukulele chords, and rock ukulele chords here.

Slayer of Light by The Romantics Ukulele Chords

Slayer Of Light

Ensiferum
Guitar 1

E E E E E E E E Q Q Q Q


E||--------------------------|-------|-------|----------------------|
B||--------------------------|-------|-------|----------------------|
G||--------------------------|-------|-------|----------------------|
D||--2-----------------------|-------|-------|--2----5----6----5----|
A||--2-----------------------|-------|-------|--2----5----6----5----|
E||--0-----------------------|-------|-------|--0----3----4----3----|

E E E E E E E E E E Q Q E E W


--------------------------|------------------------|-------------------|
--------------------------|------------------------|-------------------|
--------------------------|------------------------|-------------------|
--2-----------------------|--5--2------------------|--2----------------|
--2-----------------------|--5--2------------------|--2----------------|
--0-----------------------|--3--0------------------|--0----------------|

Q Q Q Q Q Q Q Q


----------------------|----------------------|-------|-------|
----------------------|----------------------|-------|-------|
----------------------|----------------------|-------|-------|
--2----5----6----5----|--2-------------------|-------|-------|
--2----5----6----5----|--2-------------------|-------|-------|
--0----3----4----3----|--0-------------------|-------|-------|

Q Q Q Q Q Q Q Q E E E E E E E E


----------------------|----------------------|--------------------------|
----------------------|----------------------|--------------------------|
----------------------|----------------------|--------------------------|
--2----5----6----5----|----------------------|--5--2--------------------|
--2----5----6----5----|--2-------------------|--5--2--------------------|
--0----3----4----3----|--0-------------------|--3--0--------------------|

W Q Q Q Q


-------------------|----------------------|-------|-------|-------|-------|
-------------------|----------------------|-------|-------|-------|-------|
-------------------|----------------------|-------|-------|-------|-------|
--2----------------|--2----5----6----5----|-------|-------|-------|-------|
--2----------------|--2----5----6----5----|-------|-------|-------|-------|
--0----------------|--0----3----4----3----|-------|-------|-------|-------|

Q Q Q Q E E E E E E E E W


----------------------|--------------------------|-------------------|
----------------------|--------------------------|-------------------|
----------------------|--------------------------|-------------------|
----------------------|--5--2--------------------|--2----------------|
--2-------------------|--5--2--------------------|--2----------------|
--0-------------------|--3--0--------------------|--0----------------|

Q Q Q Q


----------------------|-------|-------|-------|-------|-------|-------|-------|
----------------------|-------|-------|-------|-------|-------|-------|-------|
----------------------|-------|-------|-------|-------|-------|-------|-------|
--7----5----2----5----|-------|-------|-------|-------|-------|-------|-------|
--7----5----2----5----|-------|-------|-------|-------|-------|-------|-------|
--5----3----0----3----|-------|-------|-------|-------|-------|-------|-------|
-------|-------|-------|-------|-------|-------|-------|-------|-------|-------|
-------|-------|-------|-------|-------|-------|-------|-------|-------|-------|
-------|-------|-------|-------|-------|-------|-------|-------|-------|-------|
-------|-------|-------|-------|-------|-------|-------|-------|-------|-------|
-------|-------|-------|-------|-------|-------|-------|-------|-------|-------|
-------|-------|-------|-------|-------|-------|-------|-------|-------|-------|

Q E E Q Q Q E E Q Q Q E E E E Q


-----------------------|-----------------------|------------------------|
-----------------------|----------5--3---------|------------------------|
--2----L--2--4----5----|--5----L----------5----|----------4--2--4-------|
-----------------------|-----------------------|--5----L-----------5----|
-----------------------|-----------------------|------------------------|
-----------------------|-----------------------|------------------------|

NH
H H Q E E Q Q Q E E Q Q


--------------------|-----------------------|-------------------------|
--------------------|-----------------------|------------5--3---------|
--------------------|--2----L--2--4----5----|--5----L----------5----|
--2--------0--------|-----------------------|-------------------------|
--------------------|-----------------------|-------------------------|
--------------------|-----------------------|-------------------------|

Q E E Q E E E S S E E S S E E E Q E E Q Q


------------------------|----------------------------|-----------------------|
------------------------|----------------------------|-----------------------|
-------2--4--5----4-----|-----2-4-2-----5-4-5--2-----|--2----L--2--4----5----|
--5------------------5--|--2---------2------------0--|-----------------------|
------------------------|----------------------------|-----------------------|
------------------------|----------------------------|-----------------------|

Q E E Q Q Q E E E E Q H H


-----------------------|------------------------|--------------------|
----------5--3---------|------------------------|--------------------|
--5----L----------5----|----------4--2--4-------|--------------------|
-----------------------|--5----L-----------5----|--2--------0--------|
-----------------------|------------------------|--------------------|
-----------------------|------------------------|--------------------|

NH
Q E E Q Q Q E E Q Q Q E E Q E E


-----------------------|---------L---------------|------------------------|
-----------------------|---------L--5--3---------|------------------------|
--2----L--2--4----5----|--5----L----------5----|-------2--4--5----4-----|
-----------------------|-------------------------|--5------------------5--|
-----------------------|-------------------------|------------------------|
-----------------------|-------------------------|------------------------|

E S S E E H E E E E E E E E E E E E Q Q


-------------------------|--------------------------|------------------------|
-------------------------|--------------------------|------------------------|
-----2-4-2---------------|--------------------------|------------------------|
--2---------2--0~--------|--------------------------|------------------------|
-------------------------|-----3-----------3--------|--------------7----5----|
-------------------------|--0--1--0--0--0--1--0--0--|--0--1--0--1--5----3----|

Q Q Q Q Q Q Q Q


----------------------|-------|-------|----------------------|
----------------------|-------|-------|----------------------|
----------------------|-------|-------|----------------------|
--2-------------------|-------|-------|--2----5----6----5----|
--2-------------------|-------|-------|--2----5----6----5----|
--0-------------------|-------|-------|--0----3----4----3----|

Q Q Q Q E E E E E E E E W


----------------------|--------------------------|-------------------|
----------------------|--------------------------|-------------------|
----------------------|--------------------------|-------------------|
----------------------|--5--2--------------------|--2----------------|
--2-------------------|--5--2--------------------|--2----------------|
--0-------------------|--3--0--------------------|--0----------------|

Q Q Q Q E S S S S S S E S S S S S S


----------------------|--------------------------------|
----------------------|--5--------------7--------------|
----------------------|--------------------------------|
--7----5----2----5----|--2--------------4--------------|
--7----5----2----5----|--------------------------------|
--5----3----0----3----|-----0-0-0-0-0-0----0-0-0-0-0-0-|

E S S S S S S E S S S S S S E S S S S S S E S S S S S S


--------------------------------|--10---------------8--------------|
--8--------------7--------------|----------------------------------|
--------------------------------|----------------------------------|
--5--------------4--------------|--12--------------10--------------|
--------------------------------|------0-0-0-0-0-0-----0-0-0-0-0-0-|
-----0-0-0-0-0-0----0-0-0-0-0-0-|----------------------------------|

E S S S S S S E S S S S S S E S S S S S S E S S S S S S


--7---------------8--------------|--------------------------------|
---------------------------------|--5--------------7--------------|
---------------------------------|--------------------------------|
--9--------------10--------------|--2--------------4--------------|
-----0-0-0-0-0-0-----0-0-0-0-0-0-|--------------------------------|
---------------------------------|-----0-0-0-0-0-0----0-0-0-0-0-0-|

E S S S S S S E S S S S S S E S S S S S S E S S E S S


--------------------------------|---------------------------------|
--8--------------7--------------|---------------------------------|
--------------------------------|---------------------------------|
--5--------------4--------------|--12--------------10------9------|
--------------------------------|------0-0-0-0-0-0-----0-0----0-0-|
-----0-0-0-0-0-0----0-0-0-0-0-0-|---------------------------------|

E S S E E E E E E E S S S S S S E S S S S S S


--------------------------------|--------------------------------|
--------------------------------|--5--------------7--------------|
--------------------------------|--------------------------------|
------------------9--10--9------|--2--------------4--------------|
--12--0-0-10--12------------12--|--------------------------------|
--------------------------------|-----0-0-0-0-0-0----0-0-0-0-0-0-|

E S S S S S S E S S S S S S E S S S S S S E S S S S S S


--------------------------------|--10---------------8--------------|
--8--------------7--------------|----------------------------------|
--------------------------------|----------------------------------|
--5--------------4--------------|--12--------------10--------------|
--------------------------------|------0-0-0-0-0-0-----0-0-0-0-0-0-|
-----0-0-0-0-0-0----0-0-0-0-0-0-|----------------------------------|

E S S S S S S E S S S S S S E S S S S S S E S S S S S S


--7---------------8--------------|--------------------------------|
---------------------------------|--5--------------7--------------|
---------------------------------|--------------------------------|
--9--------------10--------------|--2--------------4--------------|
-----0-0-0-0-0-0-----0-0-0-0-0-0-|--------------------------------|
---------------------------------|-----0-0-0-0-0-0----0-0-0-0-0-0-|

E S S S S S S E S S S S S S E S S S S S S E S S E S S


--------------------------------|---------------------------------|
--8--------------7--------------|---------------------------------|
--------------------------------|---------------------------------|
--5--------------4--------------|--12--------------10------9------|
--------------------------------|------0-0-0-0-0-0-----0-0----0-0-|
-----0-0-0-0-0-0----0-0-0-0-0-0-|---------------------------------|

E S S E E E E E E S S S S S S S S Q Q


--------------------------------|----------------------------|
--------------------------------|----------------------------|
--------------------------------|------------------2----2----|
------------------9--10--9------|------------------2----2----|
--12--0-0-10--12------------12--|------------------0----0----|
--------------------------------|--0-0-0-0-0-0-0-0-----------|

S S S S S S S S Q Q S S S S S S S S E E E E


----------------------------|--------------------------------|
----------------------------|--------------------------------|
------------------5----5----|------------------5-------------|
------------------5----5----|------------------7-------------|
------------------3----3----|------------------7--0-----0--|
--3-3-3-3-3-3-3-3-----------|--5-5-5-5-5-5-5-5-5-----3-------|

E S S S S S S S S S S S S S S Q H S S S S


---------------------------------|------------------------|
---------------------------------|------------------------|
---------------------------------|------------------------|
--5------------------------------|------------------------|
--5------------------------------|--2----2----------------|
--3--3-3-3-3-3-3-0-0-0-0-0-0-0-0-|--0----0--------0-0-0-0-|

E S S S S S S E S S S S S S E S S S S S S E S S S S S S


--------------------------------|--------------------------------|
--------------------------------|--------------------------------|
--------------------------------|--5-----------------------------|
--5--------------2--------------|--7--------------5--------------|
--5--------------2--------------|--7--------------5--------------|
--3--3-3-3-3-3-3-0--0-0-0-0-0-0-|--5--5-5-5-5-5-5-3--3-3-3-3-3-3-|

Q E E E E E E S S S S S S S S Q Q


-------------------------|----------------------------|
-------------------------|----------------------------|
-------------------0--0--|------------------2----2----|
--2----2--2--2--2--2--2--|------------------2----2----|
--2----2--2--2--2--2--2--|------------------0----0----|
--0----0--0--0--0--0--0--|--0-0-0-0-0-0-0-0-----------|

S S S S S S S S Q Q S S S S S S S S E E E E


----------------------------|--------------------------------|
----------------------------|--------------------------------|
------------------5----5----|------------------5-------------|
------------------5----5----|------------------7-------------|
------------------3----3----|------------------7--0-----0--|
--3-3-3-3-3-3-3-3-----------|--5-5-5-5-5-5-5-5-5-----3-------|

E S S S S S S S S S S S S S S Q H Q


---------------------------------|---------------------|
---------------------------------|---------------------|
---------------------------------|----------------0----|
--5------------------------------|---------------------|
--5------------------------------|--2----2-------------|
--3--3-3-3-3-3-3-0-0-0-0-0-0-0-0-|--0----0-------------|

Q Q E E E E Q E E Q E E W


------------------------|------------------------|--------------------|
------------------------|------------------------|--------------------|
--5----0----0--2--4--0--|--5----4--5--4----2--4--|--0~----------------|
------------------------|------------------------|--------------------|
------------------------|------------------------|--------------------|
------------------------|------------------------|--------------------|
-------------------|-------------------|-------------------|-------------------|
-------------------|-------------------|-------------------|-------------------|
-------------------|-------------------|-------------------|-------------------|
-------------------|-------------------|-------------------|-------------------|
-------------------|-------------------|-------------------|-------------------|
-------------------|-------------------|-------------------|-------------------|
-------------------|-------------------|-------------------|-------------------|
-------------------|-------------------|-------------------|-------------------|
-------------------|-------------------|-------------------|-------------------|
-------------------|-------------------|-------------------|-------------------|
-------------------|-------------------|-------------------|-------------------|
-------------------|-------------------|-------------------|-------------------|
-------------------|-------------------|-------------------|-------------------|
-------------------|-------------------|-------------------|-------------------|
-------------------|-------------------|-------------------|-------------------|
-------------------|-------------------|-------------------|-------------------|
-------------------|-------------------|-------------------|-------------------|
-------------------|-------------------|-------------------|-------------------|
-------------------|-------------------|-------------------|-------------------|
-------------------|-------------------|-------------------|-------------------|
-------------------|-------------------|-------------------|-------------------|
-------------------|-------------------|-------------------|-------------------|
-------------------|-------------------|-------------------|-------------------|
-------------------|-------------------|-------------------|-------------------|
-------|-------|-------|-------|-------|-------|-------|-------|
-------|-------|-------|-------|-------|-------|-------|-------|
-------|-------|-------|-------|-------|-------|-------|-------|
-------|-------|-------|-------|-------|-------|-------|-------|
-------|-------|-------|-------|-------|-------|-------|-------|
-------|-------|-------|-------|-------|-------|-------|-------|

Q E E Q Q Q E E Q Q Q E E E E Q


-----------------------|-------L---------------|------------------------|
-----------------------|-------L--5--3---------|------------------------|
--2----L--2--4----5----|--5----L----------5----|----------4--2--4-------|
-----------------------|-----------------------|--5----L-----------5----|
-----------------------|-----------------------|------------------------|
-----------------------|-----------------------|------------------------|

NH
H H Q E E Q Q Q E E Q Q


--------------------|-----------------------|-------------------------|
--------------------|-----------------------|------------5--3---------|
--------------------|--2----L--2--4----5----|--5----L----------5----|
--2--------0--------|-----------------------|-------------------------|
--------------------|-----------------------|-------------------------|
--------------------|-----------------------|-------------------------|

Q E E Q E E E S S E E S S E E E Q E E Q Q


------------------------|----------------------------|-----------------------|
------------------------|----------------------------|-----------------------|
-------2--4--5----4-----|-----2-4-2-----5-4-5--2-----|--2----L--2--4----5----|
--5------------------5--|--2---------2------------0--|-----------------------|
------------------------|----------------------------|-----------------------|
------------------------|----------------------------|-----------------------|

Q E E Q Q Q E E E E Q H H


-----------------------|------------------------|--------------------|
----------5--3---------|------------------------|--------------------|
--5----L----------5----|----------4--2--4-------|--------------------|
-----------------------|--5----L-----------5----|--2--------0--------|
-----------------------|------------------------|--------------------|
-----------------------|------------------------|--------------------|

NH
Q E E Q Q Q E E Q Q Q E E Q E E


-----------------------|---------L---------------|------------------------|
-----------------------|---------L--5--3---------|------------------------|
--2----L--2--4----5----|--5----L----------5----|-------2--4--5----4-----|
-----------------------|-------------------------|--5------------------5--|
-----------------------|-------------------------|------------------------|
-----------------------|-------------------------|------------------------|

E S S E E H E E E E E E E E E E E E Q Q


-------------------------|--------------------------|------------------------|
-------------------------|--------------------------|------------------------|
-----2-4-2---------------|--------------------------|------------------------|
--2---------2--0~--------|--------------------------|------------------------|
-------------------------|-----3-----------3--------|--------------7----5----|
-------------------------|--0--1--0--0--0--1--0--0--|--0--1--0--1--5----3----|

Q Q Q Q Q Q Q Q


----------------------|-------|-------|----------------------|
----------------------|-------|-------|----------------------|
----------------------|-------|-------|----------------------|
--2-------------------|-------|-------|--2----5----6----5----|
--2-------------------|-------|-------|--2----5----6----5----|
--0-------------------|-------|-------|--0----3----4----3----|

Q Q Q Q E E E E E E E E W


----------------------|--------------------------|-------------------|
----------------------|--------------------------|-------------------|
----------------------|--------------------------|-------------------|
----------------------|--5--2--------------------|--2----------------|
--2-------------------|--5--2--------------------|--2----------------|
--0-------------------|--3--0--------------------|--0----------------|

Q Q Q Q Q Q Q Q


----------------------|----------------------|-------|-------|
----------------------|----------------------|-------|-------|
----------------------|----------------------|-------|-------|
--7----5----2----5----|--2-------------------|-------|-------|
--7----5----2----5----|--2-------------------|-------|-------|
--5----3----0----3----|--0-------------------|-------|-------|

Q Q Q Q Q Q Q Q E E E E E E E E


----------------------|----------------------|--------------------------|
----------------------|----------------------|--------------------------|
----------------------|----------------------|--------------------------|
--2----5----6----5----|----------------------|--5--2--------------------|
--2----5----6----5----|--2-------------------|--5--2--------------------|
--0----3----4----3----|--0-------------------|--3--0--------------------|

W Q Q Q Q Q Q Q Q


-------------------|----------------------|----------------------||
-------------------|----------------------|----------------------||
-------------------|----------------------|----------------------||
--2----------------|--7----5----2----5----|--2-------------------||
--2----------------|--7----5----2----5----|--2-------------------||
--0----------------|--5----3----0----3----|--0-------------------||

Guitar 2

E E. S S S S S S S S S S S E E. S S S S S S S S S S S


E||-------------------------------|-------------------------------|
B||-------------------------------|-------------------------------|
G||-------------------------------|-------------------------------|
D||--2----------------------------|-------------------------------|
A||--2----------------------------|-------------------------------|
E||--0--0---0-0-0-0-0-0-0-0-0-0-0-|--0--0---0-0-0-0-0-0-0-0-0-0-0-|

E E. S S S S S S S S S S S Q Q Q Q


-------------------------------|----------------------|
-------------------------------|----------------------|
-------------------------------|----------------------|
-------------------------------|--2----5----6----5----|
-------------------------------|--2----5----6----5----|
--0--0---0-0-0-0-0-0-0-0-0-0-0-|--0----3----4----3----|

E E. S S S S S S S S S S S E E. S S S S S S S S S S S


-------------------------------|-------------------------------|
-------------------------------|-------------------------------|
-------------------------------|-------------------------------|
--2----------------------------|-------------------------------|
--2----------------------------|-------------------------------|
--0--0---0-0-0-0-0-0-0-0-0-0-0-|--0--0---0-0-0-0-0-0-0-0-0-0-0-|

E E. S S S S S S S S S S S Q Q Q Q


-------------------------------|----------------------|
-------------------------------|----------------------|
-------------------------------|----------------------|
-------------------------------|--2----5----6----5----|
-------------------------------|--2----5----6----5----|
--0--0---0-0-0-0-0-0-0-0-0-0-0-|--0----3----4----3----|

E E. S S S S S S S S S S S E E. S S S S S S S S S S S


-------------------------------|-------------------------------|
-------------------------------|-------------------------------|
-------------------------------|-------------------------------|
--2----------------------------|-------------------------------|
--2----------------------------|-------------------------------|
--0--0---0-0-0-0-0-0-0-0-0-0-0-|--0--0---0-0-0-0-0-0-0-0-0-0-0-|

E E. S S S S S S S S S S S Q Q Q Q


-------------------------------|----------------------|
-------------------------------|----------------------|
-------------------------------|----------------------|
-------------------------------|--2----5----6----5----|
-------------------------------|--2----5----6----5----|
--0--0---0-0-0-0-0-0-0-0-0-0-0-|--0----3----4----3----|

E E. S S S S S S S S S S S E E. S S S S S S S S S S S


-------------------------------|-------------------------------|
-------------------------------|-------------------------------|
-------------------------------|-------------------------------|
--2----------------------------|-------------------------------|
--2----------------------------|-------------------------------|
--0--0---0-0-0-0-0-0-0-0-0-0-0-|--0--0---0-0-0-0-0-0-0-0-0-0-0-|

E E. S S S S S S S S S S S Q Q Q Q


-------------------------------|----------------------|
-------------------------------|----------------------|
-------------------------------|----------------------|
-------------------------------|--2----5----6----5----|
-------------------------------|--2----5----6----5----|
--0--0---0-0-0-0-0-0-0-0-0-0-0-|--0----3----4----3----|

E E. S S S S S S S S S S S E E. S S S S S S S S S S S


-------------------------------|-------------------------------|
-------------------------------|-------------------------------|
-------------------------------|-------------------------------|
--2----------------------------|-------------------------------|
--2----------------------------|-------------------------------|
--0--0---0-0-0-0-0-0-0-0-0-0-0-|--0--0---0-0-0-0-0-0-0-0-0-0-0-|

E E. S S S S S S S S S S S Q Q Q Q


-------------------------------|----------------------|
-------------------------------|----------------------|
-------------------------------|----------------------|
-------------------------------|--2----5----6----5----|
-------------------------------|--2----5----6----5----|
--0--0---0-0-0-0-0-0-0-0-0-0-0-|--0----3----4----3----|

E E. S S S S S S S S S S S E E. S S S S S S S S S S S


-------------------------------|-------------------------------|
-------------------------------|-------------------------------|
-------------------------------|-------------------------------|
--2----------------------------|-------------------------------|
--2----------------------------|-------------------------------|
--0--0---0-0-0-0-0-0-0-0-0-0-0-|--0--0---0-0-0-0-0-0-0-0-0-0-0-|

E E. S S S S S S S S S S S Q Q Q Q


-------------------------------|----------------------|-------|
-------------------------------|----------------------|-------|
-------------------------------|----------------------|-------|
-------------------------------|--7----5----2----5----|-------|
-------------------------------|--7----5----2----5----|-------|
--0--0---0-0-0-0-0-0-0-0-0-0-0-|--5----3----0----3----|-------|

E S S S S S S S S S S S S S S E S S S S S S E S S S S S S


---------------------------------|--------------------------------|
---------------------------------|--------------------------------|
---------------------------------|--------------------------------|
--2------------------------------|--5--------------7--------------|
--2------------------------------|--5--------------7--------------|
--0--0-0-0-0-0-0-0-0-0-0-0-0-0-0-|--3--3-3-3-3-3-3-5--5-5-5-5-5-5-|

E S S S S S S S S S S S S S S E S S S S S S E S S S S S S


---------------------------------|--------------------------------|
---------------------------------|--------------------------------|
---------------------------------|--------------------------------|
--2------------------------------|--7--------------5--------------|
--2------------------------------|--7--------------5--------------|
--0--0-0-0-0-0-0-0-0-0-0-0-0-0-0-|--5--5-5-5-5-5-5-3--3-3-3-3-3-3-|

E S S S S S S S S S S S S S S E S S S S S S E S S S S S S


---------------------------------|--------------------------------|
---------------------------------|--------------------------------|
---------------------------------|--------------------------------|
--2------------------------------|--5--------------7--------------|
--2------------------------------|--5--------------7--------------|
--0--0-0-0-0-0-0-0-0-0-0-0-0-0-0-|--3--3-3-3-3-3-3-5--5-5-5-5-5-5-|

E S S S S S S S S S S S S S S E S S S S S S E S S S S S S


---------------------------------|--------------------------------|
---------------------------------|--------------------------------|
---------------------------------|--------------------------------|
--5------------------------------|--------------------------------|
--3--3-3-3-3-3-3-3-3-3-3-3-3-3-3-|--7--------------5--------------|
---------------------------------|--5--5-5-5-5-5-5-3--3-3-3-3-3-3-|

E S S S S S S S S S S S S S S E S S S S S S E S S S S S S


---------------------------------|--------------------------------|
---------------------------------|--------------------------------|
---------------------------------|--------------------------------|
--2------------------------------|--5--------------7--------------|
--2------------------------------|--5--------------7--------------|
--0--0-0-0-0-0-0-0-0-0-0-0-0-0-0-|--3--3-3-3-3-3-3-5--5-5-5-5-5-5-|

E S S S S S S S S S S S S S S E S S S S S S E S S S S S S


---------------------------------|--------------------------------|
---------------------------------|--------------------------------|
---------------------------------|--------------------------------|
--2------------------------------|--7--------------5--------------|
--2------------------------------|--7--------------5--------------|
--0--0-0-0-0-0-0-0-0-0-0-0-0-0-0-|--5--5-5-5-5-5-5-3--3-3-3-3-3-3-|

E S S S S S S S S S S S S S S E S S S S S S E S S S S S S


---------------------------------|--------------------------------|
---------------------------------|--------------------------------|
---------------------------------|--------------------------------|
--2------------------------------|--5--------------7--------------|
--2------------------------------|--5--------------7--------------|
--0--0-0-0-0-0-0-0-0-0-0-0-0-0-0-|--3--3-3-3-3-3-3-5--5-5-5-5-5-5-|

E S S S S S S S S S S S S S S E S S S S S S E S S S S S S


---------------------------------|--------------------------------|
---------------------------------|--------------------------------|
---------------------------------|--------------------------------|
--5------------------------------|--------------------------------|
--3--3-3-3-3-3-3-3-3-3-3-3-3-3-3-|--7--------------5--------------|
---------------------------------|--5--5-5-5-5-5-5-3--3-3-3-3-3-3-|

E S S S S S S Q Q E S S S S S S Q Q


---------------------------|---------------------------|
---------------------------|---------------------------|
-----------------2----2----|--5--------------5----5----|
--2--------------2----2----|--5--------------5----5----|
--0--0-0-0-0-0-0-0----0----|--3--3-3-3-3-3-3-3----3----|
---------------------------|---------------------------|

E S S S S S S E E E E E S S S S S S E E E E


-----------------------------|-----------------------------|
-----------------------------|-----------------------------|
-----------------------------|-----------------------------|
--5-----------------5-----5--|--2--------------2--2--2--2--|
--5-----------------5-----5--|--2--------------2--2--2--2--|
--3--3-3-3-3-3-3-3--3--3--3--|--0--0-0-0-0-0-0-0--0--0--0--|

E S S S S S S Q Q E S S S S S S Q Q


---------------------------|---------------------------|
---------------------------|---------------------------|
-----------------2----2----|--5--------------5----5----|
--2--------------2----2----|--5--------------5----5----|
--0--0-0-0-0-0-0-0----0----|--3--3-3-3-3-3-3-3----3----|
---------------------------|---------------------------|

E S S S S S S E E E E E S S S S S S E E E E


-----------------------------|-----------------------------|
-----------------------------|-----------------------------|
-----------------------------|-----------------------------|
--5-----------------5-----5--|--2--------------2--2--2--2--|
--5-----------------5-----5--|--2--------------2--2--2--2--|
--3--3-3-3-3-3-3-3--3--3--3--|--0--0-0-0-0-0-0-0--0--0--0--|

E S S S S S S Q Q E S S S S S S Q Q


---------------------------|---------------------------|
---------------------------|---------------------------|
-----------------2----2----|--5--------------5----5----|
--2--------------2----2----|--5--------------5----5----|
--0--0-0-0-0-0-0-0----0----|--3--3-3-3-3-3-3-3----3----|
---------------------------|---------------------------|

E S S S S S S E E E E E S S S S S S E E E E


-----------------------------|-----------------------------|
-----------------------------|-----------------------------|
-----------------------------|-----------------------------|
--5-----------------5-----5--|--2--------------2--2--2--2--|
--5-----------------5-----5--|--2--------------2--2--2--2--|
--3--3-3-3-3-3-3-3--3--3--3--|--0--0-0-0-0-0-0-0--0--0--0--|

E S S S S S S Q Q E S S S S S S Q Q


---------------------------|---------------------------|
---------------------------|---------------------------|
-----------------2----2----|--5--------------5----5----|
--2--------------2----2----|--5--------------5----5----|
--0--0-0-0-0-0-0-0----0----|--3--3-3-3-3-3-3-3----3----|
---------------------------|---------------------------|

E S S S S S S E E E E E S S S S S S E E E E


-----------------------------|-----------------------------|
-----------------------------|-----------------------------|
-----------------------------|-----------------------------|
--5-----------------5-----5--|--2--------------2--2--2--2--|
--5-----------------5-----5--|--2--------------2--2--2--2--|
--3--3-3-3-3-3-3-3--3--3--3--|--0--0-0-0-0-0-0-0--0--0--0--|

E E Q E E Q E E E E Q Q


------------------------|------------------------|
------------------------|------------------------|
------------------------|------------------------|
------------------------|------------------------|
--2--3-------2--3-------|--2--3--2--3--7----5----|
--0--1-------0--1-------|--0--1--0--1--5----3----|

E E. S S S S S S S S S S S E E. S S S S S S S S S S S


-------------------------------|-------------------------------|
-------------------------------|-------------------------------|
-------------------------------|-------------------------------|
--2----------------------------|-------------------------------|
--2----------------------------|-------------------------------|
--0--0---0-0-0-0-0-0-0-0-0-0-0-|--0--0---0-0-0-0-0-0-0-0-0-0-0-|

E E. S S S S S S S S S S S Q Q Q Q


-------------------------------|----------------------|
-------------------------------|----------------------|
-------------------------------|----------------------|
-------------------------------|--2----5----6----5----|
-------------------------------|--2----5----6----5----|
--0--0---0-0-0-0-0-0-0-0-0-0-0-|--0----3----4----3----|

E E. S S S S S S S S S S S E E. S S S S S S S S S S S


-------------------------------|-------------------------------|
-------------------------------|-------------------------------|
-------------------------------|-------------------------------|
--2----------------------------|-------------------------------|
--2----------------------------|-------------------------------|
--0--0---0-0-0-0-0-0-0-0-0-0-0-|--0--0---0-0-0-0-0-0-0-0-0-0-0-|

E E. S S S S S S S S S S S Q Q Q Q


-------------------------------|----------------------|
-------------------------------|----------------------|
-------------------------------|----------------------|
-------------------------------|--7----5----2----5----|
-------------------------------|--7----5----2----5----|
--0--0---0-0-0-0-0-0-0-0-0-0-0-|--5----3----0----3----|

E S S S S S S E S S S S S S E S S S S S S E S S S S S S


--------------------------------|--------------------------------|
--------------------------------|--------------------------------|
--------------------------------|--------------------------------|
--2--------------4--------------|--5--------------4--------------|
--------------------------------|--------------------------------|
-----0-0-0-0-0-0----0-0-0-0-0-0-|-----0-0-0-0-0-0----0-0-0-0-0-0-|

E S S S S S S E S S S S S S E S S S S S S E S S S S S S


----------------------------------|---------------------------------|
----------------------------------|---------------------------------|
----------------------------------|---------------------------------|
--12--------------10--------------|--9--------------10--------------|
------0-0-0-0-0-0-----0-0-0-0-0-0-|-----0-0-0-0-0-0-----0-0-0-0-0-0-|
----------------------------------|---------------------------------|

E S S S S S S E S S S S S S E S S S S S S E S S S S S S


--------------------------------|--------------------------------|
--------------------------------|--------------------------------|
--------------------------------|--------------------------------|
--2--------------4--------------|--5--------------4--------------|
--------------------------------|--------------------------------|
-----0-0-0-0-0-0----0-0-0-0-0-0-|-----0-0-0-0-0-0----0-0-0-0-0-0-|

E S S S S S S E S S E S S E S S E E E E E E


---------------------------------|--------------------------------|
---------------------------------|--------------------------------|
---------------------------------|--------------------------------|
--12--------------10------9------|------------------9--10--9------|
------0-0-0-0-0-0-----0-0----0-0-|--12--0-0-10--12------------12--|
---------------------------------|--------------------------------|

E S S S S S S E S S S S S S E S S E E E S S S S S S


--------------------------------|------------------------------|
--------------------------------|------------------------------|
--------------------------------|------------------------------|
--2--------------4--------------|--5------4--5--4--------------|
--------------------------------|------------------------------|
-----0-0-0-0-0-0----0-0-0-0-0-0-|-----0-0----------0-0-0-0-0-0-|

E S S E E E S S S S S S E S S S S S S E S S S S S S


----------------------------------|---------------------------------|
----------------------------------|---------------------------------|
----------------------------------|---------------------------------|
--12------10--12--10--------------|--9--------------10--------------|
------0-0-------------0-0-0-0-0-0-|-----0-0-0-0-0-0-----0-0-0-0-0-0-|
----------------------------------|---------------------------------|

E S S S S S S E S S S S S S E S S E E E S S S S S S


--------------------------------|------------------------------|
--------------------------------|------------------------------|
--------------------------------|------------------------------|
--2--------------4--------------|--5------4--5--4--------------|
--------------------------------|------------------------------|
-----0-0-0-0-0-0----0-0-0-0-0-0-|-----0-0----------0-0-0-0-0-0-|

E S S S S S S E S S E S S E S S E E E E E E


---------------------------------|--------------------------------|
---------------------------------|--------------------------------|
---------------------------------|--------------------------------|
--12--------------10------9------|------------------9--10--9------|
------0-0-0-0-0-0-----0-0----0-0-|--12--0-0-10--12------------12--|
---------------------------------|--------------------------------|

S S S S S S S S Q Q S S S S S S S S Q Q


----------------------------|----------------------------|
----------------------------|----------------------------|
------------------2----2----|------------------5----5----|
------------------2----2----|------------------5----5----|
------------------0----0----|------------------3----3----|
--0-0-0-0-0-0-0-0-----------|--3-3-3-3-3-3-3-3-----------|

S S S S S S S S E E E E E S S S S S S S S S S S S S S


--------------------------------|---------------------------------|
--------------------------------|---------------------------------|
------------------5-------------|---------------------------------|
------------------7-------------|--5------------------------------|
------------------7--0-----0--|--5------------------------------|
--5-5-5-5-5-5-5-5-5-----3-------|--3--3-3-3-3-3-3-0-0-0-0-0-0-0-0-|

Q H S S S S E S S S S S S E S S S S S S


------------------------|--------------------------------|
------------------------|--------------------------------|
------------------------|--------------------------------|
------------------------|--5--------------2--------------|
--2----2----------------|--5--------------2--------------|
--0----0--------0-0-0-0-|--3--3-3-3-3-3-3-0--0-0-0-0-0-0-|

E S S S S S S E S S S S S S Q E E E E E E


--------------------------------|-------------------------|
--------------------------------|-------------------------|
--5-----------------------------|-------------------0--0--|
--7--------------5--------------|--2----2--2--2--2--2--2--|
--7--------------5--------------|--2----2--2--2--2--2--2--|
--5--5-5-5-5-5-5-3--3-3-3-3-3-3-|--0----0--0--0--0--0--0--|

S S S S S S S S Q Q S S S S S S S S Q Q


----------------------------|----------------------------|
----------------------------|----------------------------|
------------------2----2----|------------------5----5----|
------------------2----2----|------------------5----5----|
------------------0----0----|------------------3----3----|
--0-0-0-0-0-0-0-0-----------|--3-3-3-3-3-3-3-3-----------|

S S S S S S S S E E E E E S S S S S S S S S S S S S S


--------------------------------|---------------------------------|
--------------------------------|---------------------------------|
------------------5-------------|---------------------------------|
------------------7-------------|--5------------------------------|
------------------7--0-----0--|--5------------------------------|
--5-5-5-5-5-5-5-5-5-----3-------|--3--3-3-3-3-3-3-0-0-0-0-0-0-0-0-|

Q H S S S S E S S S S S S E S S S S S S


------------------------|--------------------------------|
------------------------|--------------------------------|
------------------------|--------------------------------|
------------------------|--5--------------2--------------|
--2----2----------------|--5--------------2--------------|
--0----0--------0-0-0-0-|--3--3-3-3-3-3-3-0--0-0-0-0-0-0-|

E S S S S S S E S S S S S S Q E E E E E E


--------------------------------|-------------------------|
--------------------------------|-------------------------|
--5-----------------------------|-------------------0--0--|
--7--------------5--------------|--2----2--2--2--2--2--2--|
--7--------------5--------------|--2----2--2--2--2--2--2--|
--5--5-5-5-5-5-5-3--3-3-3-3-3-3-|--0----0--0--0--0--0--0--|


--------------------------|--------------------------|
--------------------------|--------------------------|
--------------------------|--------------------------|
--------------------------|--------------------------|
--2--2-----2--2--2-----2--|--2--2-----2--2--2-----2--|
--0--0-----0--0--0-----0--|--0--0-----0--0--0-----0--|

E E. S S S S S S S S S S S E E. S S S S S S S S S S S


-------------------------------|-------------------------------|
-------------------------------|-------------------------------|
-------------------------------|-------------------------------|
--2----------------------------|-------------------------------|
--2----------------------------|-------------------------------|
--0--0---0-0-0-0-0-0-0-0-0-0-0-|--0--0---0-0-0-0-0-0-0-0-0-0-0-|


--------------------------|--------------------------|
--------------------------|--------------------------|
--------------------------|--------------------------|
--------------------------|--------------------------|
--2--2-----2--2--2-----2--|--2--2-----2--2--2-----2--|
--0--0-----0--0--0-----0--|--0--0-----0--0--0-----0--|

E E. S S S S S S S S S S S E E. S S S S S S S S S S S


-------------------------------|-------------------------------|
-------------------------------|-------------------------------|
-------------------------------|-------------------------------|
--2----------------------------|-------------------------------|
--2----------------------------|-------------------------------|
--0--0---0-0-0-0-0-0-0-0-0-0-0-|--0--0---0-0-0-0-0-0-0-0-0-0-0-|


--------------------------|--------------------------|
--------------------------|--------------------------|
--------------------------|--------------------------|
--------------------------|--------------------------|
--2--2-----2--2--2-----2--|--2--2-----2--2--2-----2--|
--0--0-----0--0--0-----0--|--0--0-----0--0--0-----0--|

E E. S S S S S S S S S S S E E. S S S S S S S S S S S


-------------------------------|-------------------------------|
-------------------------------|-------------------------------|
-------------------------------|-------------------------------|
--2----------------------------|-------------------------------|
--2----------------------------|-------------------------------|
--0--0---0-0-0-0-0-0-0-0-0-0-0-|--0--0---0-0-0-0-0-0-0-0-0-0-0-|


--------------------------|--------------------------|
--------------------------|--------------------------|
--------------------------|--------------------------|
--------------------------|--------------------------|
--2--2-----2--2--2-----2--|--2--2-----2--2--2-----2--|
--0--0-----0--0--0-----0--|--0--0-----0--0--0-----0--|

E E. S S S S S S S S S S S E E. S S S S S S S S S S S


-------------------------------|-------------------------------|
-------------------------------|-------------------------------|
-------------------------------|-------------------------------|
--2----------------------------|-------------------------------|
--2----------------------------|-------------------------------|
--0--0---0-0-0-0-0-0-0-0-0-0-0-|--0--0---0-0-0-0-0-0-0-0-0-0-0-|

E S S S S S S S S S S S S S S E S S S S S S E S S S S S S


---------------------------------|--------------------------------|
---------------------------------|--------------------------------|
---------------------------------|--------------------------------|
--2------------------------------|--5--------------7--------------|
--2------------------------------|--5--------------7--------------|
--0--0-0-0-0-0-0-0-0-0-0-0-0-0-0-|--3--3-3-3-3-3-3-5--5-5-5-5-5-5-|

E S S S S S S S S S S S S S S E S S S S S S E S S S S S S



To play the this songs, including Slayer of Light by The Romantics by ukulele, the most crucial basic ukulele chords to learn are C chord, D chord, G chord, and Em chord.
These set you up to play a ton of songs, and each of them is easy to learn.

If you are looking for When I Look in Your Eyes ukulele chords, you have visit to the best place.
You can play versatile instrument When I Look in Your Eyes using ukulele or guitar.
This song by The Romantics can also be played by that instruments.
=

When I Look in Your Eyes chords has rhythm and included in The Romantics (1980) album.
You can also find another musical genres, including jazz ukulele chords, country music ukulele chords, pop ukulele chords, world music ukulele chords, and rock ukulele chords here.

When I Look in Your Eyes by The Romantics Ukulele Chords


(Intro): D5 D G C F C

N.C. D G C F C
When I look in your eyes
I get a feeling that I can’t describe
It can’t be wrong, no, no,
Not when a feelin’s comin’ on this strong, yeah!

I’m wonderin’ why (wonderin’ why)
I feel so good inside,
When I look in your eyes...

When you tell me your’e mine
You send a shiver runnin’ up and down my spine
Could this be love?
Cause you’re the girl I’ve been dreamin’ of now,

I’m wonderin’ why (wonderin’ why)
I feel so good inside, yeah,
When I look in your eyes
When I look in your eyes



When I get you alone
It’s so much different from the telephone
Don’t let me go, yes yes!
Just want to hold you like I told you so now..

I’m wonderin’ why (wonderin’ why)
I feel so good inside
When I look in your eyes
When I look in your eyes…


When you tell me your’e mine
You send a shiver runnin’ up and down my spine
Could this be love?
Cause you’re the girl I’ve been dreamin’ of now,

I’m wonderin’ why (wonderin’ why)
I feel so good inside,
When I look in your eyes...

Repeat main pattern, end on C.

To play the most songs, including When I Look in Your Eyes by The Romantics by ukulele, the most crucial basic ukulele chords to learn are C chord, D chord, G chord, and Em chord.
These set you up to play a a lot of songs, and each of them is easy to master.