If you are looking for Eminence Front ukulele chords, you already come to the right place.
You can play versatile instrument Eminence Front using ukulele or guitar.
This song by The Who can also be played by that instruments.
=

Eminence Front chords has rhythm and included in It’s Hard (1982) album.
You can also get other musical style, including jazz ukulele chords, country music ukulele chords, pop ukulele chords, world music ukulele chords, and rock ukulele chords here.

Eminence Front by The Who Ukulele Chords


Date: Wed, 1 Apr 1998 00:10:43 EST
Subject: TAB: Eminence_front BY: Who

Eminence Front
By The Who
Written by Pete Townshend
>From It’s Hard, 1982

transcribed by
litgo@aol.com

(optional voicings)
Dbmaj7 x43111 and xx6564
C7sus4 x35566
Fm x x 10 10 13 13 (for final chorus)

(Keyboard intro)

(Main riff)


------------------- -------------------
------------------- -------------------
------------------- -------------------
-3--1/3-3---x-x-x-- -3--1/3-3---x-x-x--
------------------- -------------------
------------------- -------------------


------------------- -------------------
------------------- -------------------
------------------- -------------------
-3--1/3-3---x-x-x-- -3--1/3-3---x-x-x--
------------------- -------------------
------------------- -------------------


--- ------------- --------------
-4- -6--------4/ --6-6-----4---
--- ------------- ------------5-
--- ------------- --------------
--- ------------- --------------
--- ------------- --------------


------------------------- -----------------------------------
-----------------1------- ----1/0-----------1/0----------1---
-------3-1-----3---3-1-3- --------3/1/0---------3/1/0------3-
---1-------3-1----------- --3-----------3-------------3------
-3----------------------- -----------------------------------
------------------------- -----------------------------------


------------------- -------------------
-----4-3----------- -------------------
-1~------3----1---- -------------------
---3--------3---3/1 -------------------
------------------- --3-1---1----------
------------------- ------4---4-1-1-4>-


------------------- ------- ----13---13---16-13-
------------------- ----13- -16/--16-16/--------
---------1-3/5-3-1- -13/--- --------------------
-----1-3----------- ------- --------------------
---3--------------- ------- --------------------
-1----------------- ------- --------------------


----------------------- -13-13------
-16-13----13-13---16-16 -16/16/-----
-------15-------------- --------13-
----------------------- ------------
----------------------- ------------
----------------------- ------------
-------13---------------------------------------------
-----13--16-13-------------13-------------------------
-15/-----------15-13----15----15-13---------------13--
---------------------15-------------15-13----13-15----
------------------------------------------15----------
------------------------------------------------------


------------- ---------------------- ---------------------------
-13-15-13-15- -13-15-13--16--16----- -13------------------------
-13-15-13-15- -13-15-13--15/-15--15- ----15-13-15-13------------
------------- ---------------------- ----------------15--------
------------- ---------------------- ---------------------------
------------- ---------------------- ---------------------------
---------------------------------
---------9-8----4-6--4---4-------
------10---------------5---5-3-1-
---10----------------------------
-8-------------------------------
---------------------------------

(verse; follows intro pattern)
Sun shines, people forget
The spray flies as the speed boat glides, people forget, forget they’re
hiding
The girls smile, people forget
The snow packs as the skier tracks, people forget, forget they’re hiding

Behind an eminence front, eminence front
It’s a put on
It’s an eminence front, it’s an eminence front, it’s a put on
It’s an eminence front, eminence front, it’s a put on
It’s an eminence front, it’s an eminence front, it’s a put on

It’s a put on, it’s a put on, it’s a put on, it’s a put on,


------------- ----------------
-13-11-11-11- -13-11-11-11-10-
-13-12-12-10- -13-12-10-10-10-
-13-13-13-12- -13-13-12-12-10-
------------- ----------------
------------- ----------------

Come and join the party dress to kill

Won’t you come and join the party dress to kill

Dress to kill
[/] [/]
Drinks flow, people forget
That big wheel spins, the hair thins, people forget, forget they’re hiding
The news slows, people forget
The shares crash, hopes are dashed, people forget, forget they’re hiding

(repeat chorus)

Come and join the party, dress to, Come and join the party, dress to
Come and join the party, dress to, Come and join the party, dress to kill
Dress yourself to kill

litgo@aol.com

To play the this songs, including Eminence Front by The Who by ukulele, the most crucial basic ukulele chords to learn are C chord, D chord, G chord, and Em chord.
These set you up to play a many of songs, and each of them is easy to learn.

If you are searching for Love Ain’t for Keeping ukulele chords, you have come to the right place.
You can play versatile instrument Love Ain’t for Keeping using ukulele or guitar.
This song by The Who can also be played by that instruments.
=

Love Ain’t for Keeping chords has rhythm and included in Other Songs album.
You can also find other musical genres, including jazz ukulele chords, country music ukulele chords, pop ukulele chords, world music ukulele chords, and rock ukulele chords here.

Love Ain’t for Keeping by The Who Ukulele Chords


By The Who
>From Who’s Next, 1971
Written by Pete Townshend 1971 Towser Tunes Inc.

transcribed by
litgo@aol.com

Note: all leads are approximate.

A x02255 and x0222x
G 3×0033
D xx0232
Dsus2 xx0230
Dsus4 xx0233

(intro)
| G G | A D | A |


|-----|-------------------|----------------5-5--|
|-----|-------------------|----------------5-5--|
|-0-0-|-2-----4h6-4--2----|-2-2---2-2------2-2--|
|-0-0-|-2-(7)----------4--|-----4-----4----2-2--|
|-----|-0-(7)-------------|------------3--0-----|
|-3-3-|-------------------|-------------3^------|

Layin’ on my back in newly mown grass


|-3----------------------|-----------------------|
|-3-----------/7-7/5--3--|---3-------------------|
|-0----------------------|----------2--------2-2-|
|-0-----------/7-7--5-4--|-/4--0----0---2-4/4----|
|------------------------|------3h4--0h4---------|
|-3----------------------|-----------------------|

Rain is coming down but I know the clouds will pass


|---------------------------|-------------------------------------|
|---------------------------|-------------------------------------|
|--2-2----------2-2--------2|--2----------------------------------|
|-4-----------4-----------4-|----------------------------2-0-0----|
|---------------------------|----------------------0-3h4----------|
|---------------------------|-------------------------------------|

You bring me tea, say the babe's a-sleepin’


|-2----------------14---2--|-2---------------------------9-7---5-|
|-3----------------15---3--|-------------------------------------|
|-2----------------14---2--|---------------------------/97-6----|
|-0--------------------0--0-|-------------------------------------|
|---------------------------|-------------------------------------|
|---------------------------|-------------------------------------|

Lay down beside me
Love ain’t for keeping


|----------------|--------------------------------|--3-3-2-0-0---------|
|----------------|--------------------------------|--5-5-3-2-2---2-2---|
|----------------|---------------------------2--2-|-----------2--2-2---|
|----------------|----------------------0h2h4--4--|--------------2-2---|
|----------------|---3^-0--0-0-0h3p0-0h3----------|------------0-0-0---|
|----------------|--------3-----------------------|------------------3-|

Black ash from the foundry hangs like a hood


|-3-----------------------------|---------------------------|
|-3------------------7-8-7-8-7--|-7-----8----7-5-5---2h3p2--|
|-0------------------7-7-7-7-7--|-7-----9----7-5-6----------|
|-0------------------7-9-7-9-7--|-7---------------7-2h4p2--|
|-------------------------------|-------------------------0-|
|-3-----------------------------|---------------------------|

But the air is perfumed by the burning firewood


|-3-----------3-3---------------------|--------------------0--------|
|-3-----------1-0----/7-5-3--5p3------|(7)----------3--3---5-7--5---|
|-0-----------0-0---------------------|(7)--------------------------|
|-0-----------2-0----/7-5--4--5p4-----|(7)------------4-5/7--7-7-7-|
|-------------------------------------|-----------------------------|
|-3-----------------------------------|-----------------------------|

The seeds are bursting, the spring’s a-seeping


|0/2----------------------15-14----------|--10-10----10-9-7-5--|
|------------------------------15--------|-10-10---------------|
|--------------------------------14-----|---------/11-9-7-6---|
|--0-------------------------------------|---------------------|
|----------------------------------------|---------------------|
|----------------------------------------|---------------------|

Lay down my darling
Love ain’t for keeping


|----------------|---12--9--7---------------|--12--9--7----------|
|----------------|---13^-10-7-5-------------|--13^-10-7-5--------|
|----------------|----------7-5h6-----------|---------7-5h6-6----|
|----------------|------------5----7-7---7--|-----------5---5--2-|
|----------------|-0--------------7-----0-0-|-0-------------0-0-3|
|----------------|--------------------------|--------------------|

Lay down beside me
Love ain’t for keeping


|----------------|---12--9--7-----------|--12--9--7------5---|
|----------------|---13^-10-7-5---------|--13^-10-7-5----5---|
|--------------0-|----------7-5h6----0/6|---------7-5h6--5h6-|
|--------------0-|------------5----7-7--|-----------5------0-|
|----------------|-0-------------0-0--0-|---------------0----|
|----------------|----------------------|--------------------|

(solo)


|---12--12---12----------------|--------------------------------|
|-12^-12^--12^--12-12-10--10---|---10-10--10--14^14-10--10--10-|
|-----------------------11--11-|-11-----11--11---------11--11---|
|------------------------------|--------------------------------|
|------------------------------|--------------------------------|
|------------------------------|--------------------------------|


|---12--12---12--------|---------------------------|
|-12^-12^--12^--10--10-|---7p5-------3-------------|
|-----------------11---|-------7--0-----2---------|
|----------------------|----------0-0----2-----2---|
|----------------------|---------------0-----0---0-|
|----------------------|---------------------------|


|---2-----5-----|-----------------7--------------|
|-3--3-3/7------|-10-10-10--7h8p7-7---5----------|
|-2---2---------|-11-11-11--7h9p7-7-7-5h6--------|
|-0----------0--|---------------------------7---|
|---------------|------------------------------0-|
|---------------|--------------------------------|

Lay down beside me
Love ain’t for keeping


|--3-3-----------|---5-5---------------|------------------------|
|--3-3-----------|---5-5---------------|------------------------|
|--0-0-----0-0-0-|---2-2---------------|-------2-4/6--2--2-2----|
|--0-0-----0-0-0-|---2-2---2-----------|----2h4-----------------|
|----------------|-0--0--3^----3^3^-0--|-0----------------------|
|--3-------3-3-3-|-----------3-------3-|---------------3^---3^--|

Lay down my darling
Love ain’t for keeping


|----3-----3---3-|---------|-----------------------------------
|----3-----3---3-|-2-------|----------------------------5------
|----0-----0---0-|-2-------|/6/4p2-2-------2------------2------
|----0-----0---0-|-2-------|------4--4p2--------------2-2------
|----------------|-0-------|------------0-3--3p0-3p0--0-0------
|----------------|---------|------------------------3^---------

litgo@aol.com

To play the most songs, including Love Ain’t for Keeping by The Who by ukulele, the most crucial basic ukulele chords to learn are C chord, D chord, G chord, and Em chord.
These set you up to play a a lot of songs, and each of them is easy to learn.

If you are looking for Tommy’s Holiday Camp ukulele chords, you already come to the best site.
You can play versatile instrument Tommy’s Holiday Camp using ukulele or guitar.
This song by The Who can also be played by that instruments.
=

Tommy’s Holiday Camp chords has rhythm and included in Other Songs album.
You can also find another musical style, including jazz ukulele chords, country music ukulele chords, pop ukulele chords, world music ukulele chords, and rock ukulele chords here.

Tommy’s Holiday Camp by The Who Ukulele Chords


By The Who
>From Tommy, 1969
Written by Keith Moon and Pete Townshend

Previous transcription by:
Pete Palmer (ppalmer@mahogany.cray.com)

revised by
litgo@aol.com

(NOTE: Stage versions played whole step higher: F# (x8 10 10 10 x),
G (x 10 12 12 12 x), C#7 (x4666x); OUTRO is same.)
(banjo and calliope/organ arranged for guitar)

(B) x2


||--------------------------||------------------------|
||--------------4-----------||------------4-----------|
||.4/4-5-6---7-----7-6---5/.||-4-5-6---7-----7-6---5--|
||.------------------------.||------------------------|
||--------------------------||------------------------|
||--------------------------||------------------------|

Good morning, campers!

I’m your Uncle Ernie and I welcome you to Tommy’s Holiday


|----4------4-----4-------4|----4----4---4-----4--------4--|
|----5------5-----5-------5|----5----5---5-----5--------5--|
|----4----4-4-----4---4---4|----4----4---4-----4----4---4--|
|----6------------6--------|----6--------------6-----------|
|-7-------------7----------|-7--------------7--------------|
|--------------------------|-------------------------------|

Camp-ah!


|----5----5-----5-----5--|-5-----5-----5--------|
|----6----6-----6-----6--|----6-----6-----6-----|
|----5-5--5-----5--5--5--|-5--5--5--5--5--5-----|
|----7----------7-----7--|----7-----7-----7-----|
|-8----------8-----------|-------------------8--|
|------------------------|----------------------|

The camp with the difference, never mind the weather


|---11------11-------11---11-|---11-------11------11---11-|
|---10------10-------10---10-|---10-------10------10---10-|
|---11------11-------11---11-|---11-------11------11---11-|
|-9----9--------9--------9---|-9-----9--------9-------9---|
|----------------------------|----------------------------|
|----------------------------|----------------------------|

When you come to Tommy’s, the holiday’s forever!


|------11-------11----11---11-|---11------11-------|--|
|------10-------10----10---10-|---10------10-------|--|
|------11-------11----11---11-|---11------11-------|--|
|-9--------9-------9------9---|-9---9--------9-----|--|
|-----------------------------|--------------------|--|
|-----------------------------|--------------------|--|

E x2


||------------------------||-----------------------|
||------------4-----------||------------4----------|
||.4-5-6---7-----7-6---5/.||-4-5-6---7-----7-6---5-|
||.----------------------.||-----------------------|
||------------------------||-----------------------|
||------------------------||-----------------------|

|(organ variation) |


|-----------------------|
|------------4--5-6---7-|-10-
|-4-5-6---7-------------|
|-----------------------|
|-----------------------|
|-----------------------|

| F | F |

The camp with the difference, never mind the weather
When you come to Tommy’s, the holiday’s forever

E x2 D


||------------------------||-----------------------|---54-
||-----------4/4----------||------------4----------|--7-----
||.4-5-6---7-----7-6---5/.||-4-5-6---7-----7---5/0-|-7------
||.----------------------.||-----------------------|--------
||------------------------||-----------------------|--------
||------------------------||-----------------------|--------

(slide A to Ab quickly to
achieve banjo tonality)
(OUTRO; organ arr for guitar)
[(E)] Welcome….


|--0--0--0--0--|-0--0--0--0--0--|
|-10--9--7--5--|-0--0--0--0--0--|
|--------------|-7--6--4--2--1--|
|--------------|----------------|
|--------------|----------------|
|--------------|----------------|

litgo@aol.com

To play the this songs, including Tommy’s Holiday Camp by The Who by ukulele, the most crucial basic ukulele chords to learn are C chord, D chord, G chord, and Em chord.
These set you up to play a many of songs, and each of them is easy to master.

If you are searching for We’re Not Gonna Take It ukulele chords, you already come to the best site.
You can play versatile instrument We’re Not Gonna Take It using ukulele or guitar.
This song by The Who can also be played by that instruments.
=

We’re Not Gonna Take It chords has rhythm and included in Other Songs album.
You can also find other musical genres, including jazz ukulele chords, country music ukulele chords, pop ukulele chords, world music ukulele chords, and rock ukulele chords here.

We’re Not Gonna Take It by The Who Ukulele Chords

We’re Not Gonna Take It
written by Pete Townshend

G 3×0003 and 3×0033
C/G 3×2013
E/D xx0454
D/E xx2232
B7sus4 x24455
Ebmaj7 xx1333
Fsus4 xx3311

(intro)

||: G G G G G | C/G C/G C/G C/G C/G C/G :||

Welcome to the [C/G]camp, I guess you all know why we’re here
My name is Tommy, and I became aware this year
If you want to follow me, you’ve got to play pinball
And put in your earplugs, put on your eyeshades
You know where to put the cork

Hey you gettin’ drunk, so sorry, I’ve got you sussed
Hey you smokin’ mother nature, this is a bust
Hey hung up ol’ Mr. Normal, don’t try to gain my trust
‘Cause you ain’t gonna follow me any of those ways
Although you think you must

(chorus)
We’re [/]not [/]gonna [/]take [/]it C


|----------------------|
|----------------------|
|----------------------|
|-------2-2-0-2h3---2--|
|---3-3----------------|
|----------------------|

We’re not gonna take it
We’re not gonna take it
We’re not gonna take it

We’re not gonna take it, never did and never will
We’re not gonna take it, gonna break it, gonna shake it
Let’s forget it better still

G / / / / C/G C G F C x4


|---------------------|
|---------------1-----|
|-------0---0---2--0--|
|-----2-2---0---3--2--|
|-----3---------------|
|---------------------|

Now you can’t hear me, your ears are truly sealed
You can’t speak either, ’cause your mouth is filled
You can’t see nothing, and pinball completes the scene
Here comes Uncle Ernie to guide you to your very own machine

We’re not gonna take it
We’re not gonna take it
We’re not gonna take it
We’re not gonna take it

We’re not gonna take it, never did and never will
Don’t want no religion, and as far as we can tell
We ain’t gonna take you. Never did and never will
We’re not gonna take you, we forsake you, gonna rape you
Let’s forget you better still

We forsake you, gonna rape you
Let’s forget you better still

(See me, feel me)

| E/D | D/E | E/D | D/E |

See me feel me touch me heal me
See me, feel me, touch me, heal me
See me, feel me, touch me, heal me

See me feel me touch me heal me

(optional riff) Bsus4 B7sus4 B


a|-------0--2---|
e|-0-2-4--------|

Listening to you, I get the music
Gazing at you, I get the heat
Following you, I climb the mountain
I get excitement at your feet

Right behind you, I see the millions
On you, I see the glory

To play the most songs, including We’re Not Gonna Take It by The Who by ukulele, the most important basic ukulele chords to learn are C chord, D chord, G chord, and Em chord.
These set you up to play a ton of songs, and each of them is easy to master.

If you are searching for It’s Not True ukulele chords, you’ve visit to the best site.
You can play versatile instrument It’s Not True using ukulele or guitar.
This song by The Who can also be played by that instruments.
=

It’s Not True chords has rhythm and included in My Generation (1965) album.
You can also find other musical genres, including jazz ukulele chords, country music ukulele chords, pop ukulele chords, world music ukulele chords, and rock ukulele chords here.

It’s Not True by The Who Ukulele Chords


C/E x75558
C 8 10 xxxx
C6 8 12 xxxx
C7 8 13 xxxx
Bb 68xxxx
Bb6 6 10 xxx

It’s not true[C/E]

You say I’ve been in prison
You say I’ve got a wife
You say I’ve had help doing
Everything throughout my life

It’s not true, it’s not true
I’m telling you
‘Cause I’m up here and you’re nowhere
It’s not true, so there


I haven’t got eleven kids
I weren’t born in Baghdad
I’m not half Chinese either
And I didn’t kill my dad

(repeat chorus)

If you hear more rumors
You can just forget them, too
Fools start rumors
None of them are true

(repeat chorus)


You say I’ve been in prison
And you say I’ve got a wife
You say I’ve had help doing
Everything throughout my life

||F Bb ||
|| |–3^-||

I haven’t got eleven kids
I weren’t born in Baghdad
I’m not half-Chinese either
And I didn’t kill my dad

(repeat chorus)

It’s not true, it’s not true
I’m telling you
‘Cause I’m up here and you’re nowhere
It’s not true, so there

To play the most songs, including It’s Not True by The Who by ukulele, the most important basic ukulele chords to learn are C chord, D chord, G chord, and Em chord.
These set you up to play a a lot of songs, and each of them is easy to master.

If you are searching for Sunrise ukulele chords, you have visit to the right site.
You can play versatile instrument Sunrise using ukulele or guitar.
This song by The Who can also be played by that instruments.
=

Sunrise chords has rhythm and included in The Who Sell Out (1967) album.
You can also get other musical style, including jazz ukulele chords, country music ukulele chords, pop ukulele chords, world music ukulele chords, and rock ukulele chords here.

Sunrise by The Who Ukulele Chords

by Pete Townshend
Recorded by the Who on the “The Who Sell Out” album.
Transcribed by phillip@phoenix.princeton.edu
Chords used:
F XXX037
Bbm/F XXX048
Dm/F XXX057
F7sus4 XXX068
Fmaj7 XXX077
Bb/F XXX088
C XX0775
Bb/C XX0553
G 5X765X
Gmaj7 5X665X
Gmin7 5X5555
Cmaj7 X5767X
Cmin7 X5X565
Cmin6 X5X465
G6 5X465X
B11 4X442X
B7b5 3X342X
Emaj7 2X332X
C#11 6X664X
C#7b5 5X564X
F#maj7 4X554X
D11 7X775X
D7b5 6X665X
The jazz chords used in the middle section are derived from the
following shapes:


------ ------ ------ ------
------ ------ ------ ------
------ ------ ------ ------
------ ------ ------ --4---
5---5- 5---5- 5-5555 5---5-
---6-- --66-- ------ ---6--
--7--- ------ ------ ------
------ ------ ------ ------


------ ------ ------
------ ------ ------
------ ------ ------
------ ------ ---4--
-5---- -5-5-5 -5---5
---6-- ----6- ----6-
--7-7- ------ ------
------ ------ ------


------ ------
----2- ----2-
------ 3-3---
4-44-- ---4--
------ ------
------ ------
------ ------

The guitar is tuned down one whole step.

Intro (eighth notes)

[Bbm/F] [Dm/F]


D|--7-----7---------|--8-----8---------|--7-----7---------|--8-----8---------|
A|--3-----3---------|--4-----4---------|--5-----5---------|--6-----6---------|
F|--0-0-0-0-0-0-0-0-|--0-0-0-0-0-0-0-0-|--0-0-0-0-0-0-0-0-|--0-0-0-0-0-0-0-0-|
C|------------------|------------------|------------------|------------------|
G|------------------|------------------|------------------|------------------|
D|------------------|------------------|------------------|------------------|

Fmaj7 Bb(no 3rd)/F Fmaj7 F7sus4


D|--7-----7---------|--8-----8---------|--7-----7---------|--8-----8---------|
A|--7-----7---------|--8-----8---------|--7-----7---------|--6-----6---------|
F|--0-0-0-0-0-0-0-0-|--0-0-0-0-0-0-0-0-|--0-0-0-0-0-0-0-0-|--0-0-0-0-0-0-0-0-|
C|------------------|------------------|------------------|------------------|
G|------------------|------------------|------------------|------------------|
D|------------------|------------------|------------------|------------------|

[Bbm/F]


-|--7-----7---------|--8-----8---------|
-|--5-----5---------|--4-----4---------|
-|--0-0-0-0-0-0-0-0-|--0-0-0-0-0-0-0-0-|
-|------------------|------------------|
-|------------------|------------------|
-|------------------|------------------|

You take away the [Bbm/F]breath I was keeping for sunrise
You appear and the mor[Bbm/F]ning looks good in my eyes
And [Bb/C]then again I’ll turn down love
[Bb/C]Having seen you again
[Bb/C]Once more you’ll disappear
[Bb/C]My morning put to shame

You take away the breath I was keeping for sunrise
You appear and the morning looks good in my eyes
And then again I’ll turn down love having seen you again
Once more you’ll disappear my morning put to shame

Interlude (triplets)


-|------------0-----------0-|------------0-----------0-|------------0-----------

0-|


-|------5---5-------5---5---|------5---5-------5---5---|------4---4-------4---4-

–|


-|----7---7-------7---7-----|----7---7-------7---7-----|----6---6-------6---6---

–|


-|--7-----------7-----------|--6-----------6-----------|--6-----------6---------

–|


-|--------------------------|--------------------------|------------------------

–|


-|--------------------------|--------------------------|------------------------

–|


-|------------0-----------0-|------------0-----------0-|------------0-----------

0-|


-|------5---5-------5---5---|------4---4-------4---4---|------4---4-------4---4-

–|


-|----7---7-------7---7-----|----6---6-------6---6-----|----6---6-------6---6---

–|


-|--6-----------6-----------|--6-----------6-----------|--5-----------5---------

–|


-|--------------------------|--------------------------|------------------------

–|


-|--------------------------|--------------------------|------------------------

–|


-|------------0-----------0-|------------0-----------0-|
-|------8---8-------8---8---|------7---7-------7---7---|
-|----5---5-------5---5-----|----5---5-------5---5-----|
-|--0-----------0-----------|--0-----------0-----------|
-|--------------------------|--------------------------|
-|--------------------------|--------------------------|

Sometimes I feel that [Bbmin/F]this will go on my life through
Each day I spend is an [Bbmin/F]echoing vision of you
[Bb/C]And then again I’ll turn down love
[Bb/C]Remembering your smile
[Bb/C]My every day is spent
[Bb/C]thinking of you all the while

Times [Bb/C]I’ve let myself down
My [Bb/C]head’s spinning round
My eyes see on ly you
The chances I’ve lost
Opportunities tossed away and into the blue

You take away the breath[Bbm/F] I was keeping for sunrise
You appear and the mor[Bbm/F]ning looks drab in my eyes
And [Bb/C]then again I’ll turn down love
[Bb/C]Having seen you again
[Bb/C]And then again you’ll disappear
[Bb/C]My morning put to shame

To play the this songs, including Sunrise by The Who by ukulele, the most important basic ukulele chords to learn are C chord, D chord, G chord, and Em chord.
These set you up to play a many of songs, and each of them is easy to master.

If you are looking for Happy Jack ukulele chords, you have visit to the right site.
You can play versatile instrument Happy Jack using ukulele or guitar.
This song by The Who can also be played by that instruments.
=

Happy Jack chords has rhythm and included in Other Songs album.
You can also find other musical style, including jazz ukulele chords, country music ukulele chords, pop ukulele chords, world music ukulele chords, and rock ukulele chords here.

Happy Jack by The Who Ukulele Chords


Date: Fri, 3 Oct 1997 00:37:39 -0400 (EDT)
Subject: TAB: Happy_Jack by: Who

Happy Jack
By The Who, 1966
Written by Pete Townshend

A7 x022xx

(intro pattern)


------------------------ ----
------------------------ ----
---------0---4----0----- -2--
-0---2-4-------2----4-0- -0--
------------------------ ----
------------------------ ----

D (main pattern; use palm mute)


--------- ---------
--------- ---------
-2------- -2-------
-0-4-4-4- -0-4-4-4-
---5-5-5- ---5-5-5-
--------- ---------

[(bass)]


--------- ---------
--------- ---------
-5------- -5-------
-------5- -------5-


Happy Jack wasn’t old, but he was a man
He lived in the sand at the Isle of Man

(intro riff)

The kids would all sing, he would take the wrong key
So they rode on his head on their furry donkey


The kids couldn’t hurt Jack
They tried and tried and tried
They dropped things on his back
And lied and lied and lied and lied and lied

But they couldn’t stop Jack or the waters lapping
And they couldn’t prevent Jack from feeling happy


But they couldn’t stop Jack, or the waters lapping
And they couldn’t prevent Jack from feeling happy


A A A A A A A A A…….

The kids couldn’t hurt Jack
They tried and tried and tried
They dropped things on his back
And lied and lied and lied and lied and lied

But they couldn’t stop Jack or the waters lapping
And they couldn’t prevent Jack from feeling happy

(opening lick )

I saw ya

To play the this songs, including Happy Jack by The Who by ukulele, the most important basic ukulele chords to learn are C chord, D chord, G chord, and Em chord.
These set you up to play a a lot of songs, and each of them is easy to master.

If you are searching for Sunrise ukulele chords, you have come to the best place.
You can play versatile instrument Sunrise using ukulele or guitar.
This song by The Who can also be played by that instruments.
=

Sunrise chords has rhythm and included in The Who Sell Out (1967) album.
You can also find other musical genres, including jazz ukulele chords, country music ukulele chords, pop ukulele chords, world music ukulele chords, and rock ukulele chords here.

Sunrise by The Who Ukulele Chords


by Pete Townshend
Recorded by the Who on the “The Who Sell Out” album.
Transcribed by phillip@phoenix.princeton.edu
Chords used:
F XXX037
Bbm/F XXX048
Dm/F XXX057
F7sus4 XXX068
Fmaj7 XXX077
Bb/F XXX088
C XX0775
Bb/C XX0553
G 5X765X
Gmaj7 5X665X
Gmin7 5X5555
Cmaj7 X5767X
Cmin7 X5X565
Cmin6 X5X465
G6 5X465X
B11 4X442X
B7b5 3X342X
Emaj7 2X332X
C#11 6X664X
C#7b5 5X564X
F#maj7 4X554X
D11 7X775X
D7b5 6X665X
The jazz chords used in the middle section are derived from the
following shapes:


------ ------ ------ ------
------ ------ ------ ------
------ ------ ------ ------
------ ------ ------ --4---
5---5- 5---5- 5-5555 5---5-
---6-- --66-- ------ ---6--
--7--- ------ ------ ------
------ ------ ------ ------


------ ------ ------
------ ------ ------
------ ------ ------
------ ------ ---4--
-5---- -5-5-5 -5---5
---6-- ----6- ----6-
--7-7- ------ ------
------ ------ ------


------ ------
----2- ----2-
------ 3-3---
4-44-- ---4--
------ ------
------ ------
------ ------

The guitar is tuned down one whole step.

Intro (eighth notes)

[Bbm/F] [Dm/F]


D|--7-----7---------|--8-----8---------|--7-----7---------|--8-----8---------|
A|--3-----3---------|--4-----4---------|--5-----5---------|--6-----6---------|
F|--0-0-0-0-0-0-0-0-|--0-0-0-0-0-0-0-0-|--0-0-0-0-0-0-0-0-|--0-0-0-0-0-0-0-0-|
C|------------------|------------------|------------------|------------------|
G|------------------|------------------|------------------|------------------|
D|------------------|------------------|------------------|------------------|

Fmaj7 Bb(no 3rd)/F Fmaj7 F7sus4


D|--7-----7---------|--8-----8---------|--7-----7---------|--8-----8---------|
A|--7-----7---------|--8-----8---------|--7-----7---------|--6-----6---------|
F|--0-0-0-0-0-0-0-0-|--0-0-0-0-0-0-0-0-|--0-0-0-0-0-0-0-0-|--0-0-0-0-0-0-0-0-|
C|------------------|------------------|------------------|------------------|
G|------------------|------------------|------------------|------------------|
D|------------------|------------------|------------------|------------------|

[Bbm/F]


-|--7-----7---------|--8-----8---------|
-|--5-----5---------|--4-----4---------|
-|--0-0-0-0-0-0-0-0-|--0-0-0-0-0-0-0-0-|
-|------------------|------------------|
-|------------------|------------------|
-|------------------|------------------|

You take away the [Bbm/F]breath I was keeping for sunrise
You appear and the mor[Bbm/F]ning looks good in my eyes
And [Bb/C]then again I’ll turn down love
[Bb/C]Having seen you again
[Bb/C]Once more you’ll disappear
[Bb/C]My morning put to shame

You take away the breath I was keeping for sunrise
You appear and the morning looks good in my eyes
And then again I’ll turn down love having seen you again
Once more you’ll disappear my morning put to shame

Interlude (triplets)


-|------------0-----------0-|------------0-----------0-|------------0-----------

0-|


-|------5---5-------5---5---|------5---5-------5---5---|------4---4-------4---4-

–|


-|----7---7-------7---7-----|----7---7-------7---7-----|----6---6-------6---6---

–|


-|--7-----------7-----------|--6-----------6-----------|--6-----------6---------

–|


-|--------------------------|--------------------------|------------------------

–|


-|--------------------------|--------------------------|------------------------

–|


-|------------0-----------0-|------------0-----------0-|------------0-----------

0-|


-|------5---5-------5---5---|------4---4-------4---4---|------4---4-------4---4-

–|


-|----7---7-------7---7-----|----6---6-------6---6-----|----6---6-------6---6---

–|


-|--6-----------6-----------|--6-----------6-----------|--5-----------5---------

–|


-|--------------------------|--------------------------|------------------------

–|


-|--------------------------|--------------------------|------------------------

–|


-|------------0-----------0-|------------0-----------0-|
-|------8---8-------8---8---|------7---7-------7---7---|
-|----5---5-------5---5-----|----5---5-------5---5-----|
-|--0-----------0-----------|--0-----------0-----------|
-|--------------------------|--------------------------|
-|--------------------------|--------------------------|

Sometimes I feel that [Bbmin/F]this will go on my life through
Each day I spend is an [Bbmin/F]echoing vision of you
[Bb/C]And then again I’ll turn down love
[Bb/C]Remembering your smile
[Bb/C]My every day is spent
[Bb/C]thinking of you all the while

Times [Bb/C]I’ve let myself down
My [Bb/C]head’s spinning round
My eyes see on ly you
The chances I’ve lost
Opportunities tossed away and into the blue

You take away the breath[Bbm/F] I was keeping for sunrise
You appear and the mor[Bbm/F]ning looks drab in my eyes
And [Bb/C]then again I’ll turn down love
[Bb/C]Having seen you again
[Bb/C]And then again you’ll disappear
[Bb/C]My morning put to shame

To play the most songs, including Sunrise by The Who by ukulele, the most important basic ukulele chords to learn are C chord, D chord, G chord, and Em chord.
These set you up to play a a lot of songs, and each of them is easy to master.

If you are searching for It’s Not Enough ukulele chords, you’ve come to the right site.
You can play versatile instrument It’s Not Enough using ukulele or guitar.
This song by The Who can also be played by that instruments.
=

It’s Not Enough chords has rhythm and included in Endless Wire (2006) album.
You can also find another musical genres, including jazz ukulele chords, country music ukulele chords, pop ukulele chords, world music ukulele chords, and rock ukulele chords here.

It’s Not Enough by The Who Ukulele Chords

Am, G, D x2

It’s not enough
Whatever you give
A little bit more
Than you always need
A little more man
A little more seed

It’s not enough
It’s not enough, It’s not enough
Whatever I give, It’s never enough
( Tab from: http://www.guitartabs.cc/tabs/w/who/its_not_enough_crd.html )
I gave you cash
I gave you love
All that I heard
Was “It’s Not Enough”

I work so hard, It gets so tough
Whatever I give, Never feels like enough

It’s not enough, It’s not enough, It’s never enough
Whatever I give, It’s never enough

You said you’d go as far
As to turn to my friend
Who once warned me of you
Said you’d hasten my end
He’ll choose you over me
Because I have lent
Every ounce of my juice
My essence is spent

etc.

To play the this songs, including It’s Not Enough by The Who by ukulele, the most important basic ukulele chords to learn are C chord, D chord, G chord, and Em chord.
These set you up to play a many of songs, and each of them is easy to master.

If you are searching for I Need You ukulele chords, you have visit to the right site.
You can play versatile instrument I Need You using ukulele or guitar.
This song by The Who can also be played by that instruments.
=

I Need You chords has rhythm and included in Other Songs album.
You can also find other musical style, including jazz ukulele chords, country music ukulele chords, pop ukulele chords, world music ukulele chords, and rock ukulele chords here.

I Need You by The Who Ukulele Chords


Song: I Need You
Written by Keith Moon
Album: A Quick One (1966)
tabber: floydbarber (I’m from Finland!)

This is my first tab, I think it’s correct. Enjoy!

Intro:

Verse I:
Knowing
Is what people tell you
That you’re thinking wrong
Embrace you,
But they really mean “So long”

Pre-Chorus I:
You talk to them
They laugh aloud
Yet they run to you
In any crowd

Chorus:
Please talk to me again
I need you
( Tab from: http://www.guitartabs.cc/tabs/w/who/i_need_you_crd.html )
Verse II:
We’re dancing
We will come and dance near you
We want to learn
Let us come and sitar with you

Pre-Chorus II:
Distort my ears when
The music’s loud
Yet you raise your hatchet
In the yellow crowd

Chorus II:
Please talk to me again
I need you

Bridge:

(repeat Verse I)

(repeat Pre-Chorus I)

(repeat Chorus II)

Outro:



That’s it for the guitar.. rate please!

To play the most songs, including I Need You by The Who by ukulele, the most crucial basic ukulele chords to learn are C chord, D chord, G chord, and Em chord.
These set you up to play a a lot of songs, and each of them is easy to learn.

  • 1
  • 2