If you are searching for Messages ukulele chords, you have visit to the right place.
You can play versatile instrument Messages using ukulele or guitar.
This song by Velvet Revolver can also be played by that instruments.
=

Messages chords has rhythm and included in Other Songs album.
You can also get another musical style, including jazz ukulele chords, country music ukulele chords, pop ukulele chords, world music ukulele chords, and rock ukulele chords here.

Messages by Velvet Revolver Ukulele Chords

Intro

(Verso 1)

Honey so long, nice to see you

Won’t be long before I come back home

When the plane lands, will you reach me

Will you call me on the telephone

Coro

Tell my son I wish I never yelled at him yesterday cause everything’s changed

Radar signal seeking you, but finding nothing at all, hey –

Blow the horn and call the cavalry there’s something happening, hey —


Riff: Am---F---Dm---G--C

Verso 2

Goodbye mother, Tell my daughter

Have to leave, Get of the telephone

Theres a problem, Sinking feeling,

Heros died and plastic on the run

Coro

Tell my son I wish I Never yelled at him yesterday Cause everythings changed,

And you, you gave me all you had, hey.

I hope someday you will be happy, Without me.


Riff: Am---F---Dm---G--C

Lost in a world that’s quickly going by,

You were there so strengthened you knew the ground,

Angels and the demons fight to save the lives,

While all the others cry

Solo:

Coro 2
As for you, you made my life worth living,

I pray one day you will de happy, Without me.

Goodbye, Goodbye.

en el coro la segunda estructura (F–G–C)
son 4 compases, uno para cada acorde y do (C) se repite


(F--G--C--C)

Correcciones: jhon-gnr@hotmail.com

To play the most songs, including Messages by Velvet Revolver by ukulele, the most important basic ukulele chords to learn are C chord, D chord, G chord, and Em chord.
These set you up to play a many of songs, and each of them is easy to learn.

If you are searching for She Builds Quick Machines ukulele chords, you have visit to the right site.
You can play versatile instrument She Builds Quick Machines using ukulele or guitar.
This song by Velvet Revolver can also be played by that instruments.
=

She Builds Quick Machines chords has rhythm and included in Libertad (2007) album.
You can also find other musical style, including jazz ukulele chords, country music ukulele chords, pop ukulele chords, world music ukulele chords, and rock ukulele chords here.

She Builds Quick Machines by Velvet Revolver Ukulele Chords


Velvet Revolver – She Builds Quick Machines
from Libertad

as tabbed by axejam123

This is the whole song, and Ive played it with my band and it sounds fine. This is also
1st guitar (Slash) only, but the 2nd (Kushner) part should be pretty easy to figure
And if somethings in here that should be in the Kushner part, watev. It sounds good.

This is also my first tab, even though Ive been playin for almost 7 years (LOL) so
a little break, please ?

NOTE
Slash has his own style that cannot be efficiently replicated in a TAB. This is in no
an exact tablature, but it is a decent guideline for the stuff in the song. Listen to the
and figure out the exact bends and rhythms that make SlashKwell, Slash.

Intro/Main Riff


[---------------------------------------]
[---------------------------------------]
[---------------------------------------] x4 for intro
[-10-12-0-10-12-0-10-12-9-12--0-3-0-3-0-] x4 for main riff
[-10-12-0-10-12-0-10-12-9-12--0-3-0-3-0-]
[-10-12-0-10-12-0-10-12-9-12--0-3-0-3-0-]

Verse (This includes both left ear and right ear stuff for the sake of sounding good
playing by your lonely self. In reality, the 1st guitar would play the main riff, base
only, while the 2nd would do the half notes).


[----------------------------------]
[----------------------------------]
[----------------------------------]
[-----------10--12-----------3--5--] x2 for verse
[-3-5-3-5-3--------3-5-3-5-3-------]
[----------------------------------]

Pre-Chorus (Half-time)


[--------------------------------------------]
[--------------------------------------------]
[--------------------------------------------]
[--------------------------------------------]
[--------------------5---------------------5-]
[-7--5--10-3-5-3-5-3----7--5--10-3-5-3-5-3---]

Chorus


[-------10-------10------------10-------10-----]
[-------10-------10------------10-------10-----]
[---------------------------------------10-----]
[-10-12----10-12----10-12-9-12----10-12--------]
[-10-12----10-12----10-12-9-12----10-12--------]
[-10-12----10-12----10-12-9-12----10-12----3-0-]

Verse

Pre-Chorus

Chorus (Didnt see that comin, huh?)

Bridge Thing


[-----------------]
[-----------------]
[-----------------] Basically, when you play this live, just mess
[-----------------] around with that and it sounds good. Its a VR
[---10-10-10-12---] bridge, its not a perfectly set thing
[0--------------0-] anyways.

2nd Bridge


[-1-1-1---1-1-1---1-1-1---3-3-3---3-3-3---3-3-3-3-]
[-1-1-1---1-1-1---1-1-1---3-3-3---3-3-3---3-3-3-3-]
[-2-2-2---2-2-2---2-2-2---4-4-4---4-4-4---4-4-4-4-]
[-3-3-3---3-3-3---3-3-3---5-5-5---5-5-5---5-5-5-5-] x2
[-3-3-3---3-3-3---3-3-3---5-5-5---5-5-5---5-5-5-5-]
[-------------------------------------------------]

Solo – Slash time!


[-8b8p7---8b8p7---------------------------------------------|
[-------8-------8--8b8p-6--6-8b8p-6--6--8b8p-6--6-8b8p-6--6-|
[------------------------7---------7----------7---------7---|
[-----------------------------------------------------------|
[-----------------------------------------------------------|
[-----------------------------------------------------------|
[-------------8---------8----------------------------------------------|
[8b8p-6--6-8b^-8-6---8b^--8--------------------------------------------|
[------7-----------7--------7-5-7b-7-5---------------------------------|
[--------------------------------------7-5-7---------------------------|
[--------------------------------------------5-7-5-3-5-3---------------|
[--------------------------------------------------------5-3-0-5-3-0-5-|
[-------------------------------------------------------------|
[-------------------------------------------------------------|
[---------------------------------3b--------------------------|
[----------------------------3b-5----5-7-5---5-7-8-10-8-10-12-|
[-------------5b-3-5-3---3-5---------------7------------------|
[-3-0-5-3-5-3----------5--------------------------------------|
[----------------------------------------------13b^-13-10-13-10----|
[-----------------------------------------12b^------------------13-|
[-12b^-10----------10-12b^--12b^-10----10--------------------------|
[-12b^----12-10-12------------------12-----------------------------|
[------------------------------------------------------------------|
[------------------------------------------------------------------|
[--------13-------------------------15b~--15-13----13-15b^-13-------|
[-10-13b^---13-10-------------------------------15------------15~---|
[-----------------12-10---------------------------------------------|
[-----------------------12-10---------------------------------------|
[-----------------------------12~-----------------------------------|
[-------------------------------------------------------------------|
[-17b^~--15-17-17b^-15----15-17b^-----------]
[----------------------17---------17b^~~----]
[-------------------------------------------]
[-------------------------------------------] whew.
[-------------------------------------------]
[-------------------------------------------]

Pre-Chorus

Chorus

END.

Thanks for checkin this out, VRs my favorite band.

To play the most songs, including She Builds Quick Machines by Velvet Revolver by ukulele, the most important basic ukulele chords to learn are C chord, D chord, G chord, and Em chord.
These set you up to play a a lot of songs, and each of them is easy to master.

If you are looking for Messages ukulele chords, you’ve visit to the right place.
You can play versatile instrument Messages using ukulele or guitar.
This song by Velvet Revolver can also be played by that instruments.
=

Messages chords has rhythm and included in Other Songs album.
You can also get other musical genres, including jazz ukulele chords, country music ukulele chords, pop ukulele chords, world music ukulele chords, and rock ukulele chords here.

Messages by Velvet Revolver Ukulele Chords


Intro

(Verso 1)

Honey so long, nice to see you

Won’t be long before I come back home

When the plane lands, will you reach me

Will you call me on the telephone

Coro

Tell my son I wish I never yelled at him yesterday cause everything’s changed

Radar signal seeking you, but finding nothing at all, hey –

Blow the horn and call the cavalry there’s something happening, hey —


Riff: Am---F---Dm---G--C

Verso 2

Goodbye mother, Tell my daughter

Have to leave, Get of the telephone

Theres a problem, Sinking feeling,

Heros died and plastic on the run

Coro

Tell my son I wish I Never yelled at him yesterday Cause everythings changed,

And you, you gave me all you had, hey.

I hope someday you will be happy, Without me.


Riff: Am---F---Dm---G--C

Lost in a world that’s quickly going by,

You were there so strengthened you knew the ground,

Angels and the demons fight to save the lives,

While all the others cry

Solo:

Coro 2
As for you, you made my life worth living,

I pray one day you will de happy, Without me.

Goodbye, Goodbye.

en el coro la segunda estructura (F–G–C)
son 4 compases, uno para cada acorde y do (C) se repite


(F--G--C--C)

Correcciones: jhon-gnr@hotmail.com

To play the this songs, including Messages by Velvet Revolver by ukulele, the most important basic ukulele chords to learn are C chord, D chord, G chord, and Em chord.
These set you up to play a many of songs, and each of them is easy to master.