If you are looking for You Better Believe It ukulele chords, you already visit to the right place.
You can play versatile instrument You Better Believe It using ukulele or guitar.
This song by Vintage Trouble can also be played by that instruments.
=

You Better Believe It chords has rhythm and included in The Bomb Shelter Sessions (2010) album.
You can also get another musical genres, including jazz ukulele chords, country music ukulele chords, pop ukulele chords, world music ukulele chords, and rock ukulele chords here.

You Better Believe It by Vintage Trouble Ukulele Chords

CAPO IN THE FIRST FRET (F tone, chords in E shape)

Intro chords: E E7 A (A/G) E E7 (4x)

Intro 1 (2x)
(Riff 1: E E4 E ) A (A/G) E (Riff 2)


e|-------|---------------0---------------------------0--|------------------|
B|-------|-0----0--0--0-------/3-3-3-3----2-2-2--2------|------------------|
G|-------|-0h1--2--2--0h1-----/4-4-4-4----2-2-2--2--1---|--------------1---|
D|-------|-2----2--2--2-------------------2-2-2--2--2---|----0---0--2--2---|
A|-------|------------------------------0-----------2---|0h2---2-------2---|
E|-12'0~|------------------------------------3-3b--0---|--------------0---|

Intro 2

[(A/G)]


e|----------------0---0--------------0---------|
B|--0----0--0--0----3-----2-2-2--2----------/3~|
G|--0h1--2--2--0h1--------2-2-2--2--1-------/4~|
D|--2----2--2--2----------2-2-2--2--2----------|
A|------------------------0---------2----------|
E|-0--------------------------3-3b--0----------|

[(A/G)]


e|-------------------0---------------------------|
B|---0----0--0--0--------------------2-2-2-------|
G|---0h1--2--2--0h1------------------2-2-2----1--|
D|---2----2--2--2---------0---0--2---2-2-2----2--|
A|---------------------0h2--2-------0---------2--|
E|--0----------------------------------3-3b--0---|

Verse 1:
(Riff 1) E E4 E
Last train leaving the station
And I?m gonna tak[(A/G)]e it
(Riff 1) E E4 E
Before I?m broken more by this situation
I am gonna break[(A/G)] it

Lord Knows I?ve tried more than any man could
And I did more than I swore I ever would
Now I?m turning the good into gone
And I?m shuffling on my way

Chorus:

YOU BETTER BELIEVE IT[(A/G)]
YOU BETTER BELIEVE IT[(A/G)]

A RAY OF LIGHT
FOUND IT?S [A/C#]WAY TO MY MIND
KNOT?S UNTIED
YOU B[(A/G)]ETTER BELIEVE IT[(A/G)]

Lick 1:(E E4 E A (A/G) E E7)


e|-----------------------------3b------------------|
B|------3--3h5-3h5--5p3---3h5~--------3------------|
G|--2/4-----------------4---------2/4---42p0------|
D|---------------------------------------------2---|
A|-------------------------------------------------|
E|-------------------------------------------------|

Verse 2:
(Riff 1) E E4 E
Last tug boat to part the water
And I?m diving for[(A/G)] it
(Riff 1) E E4 E
A little sparrow inside saying, ?Fly, Baby?
How can I igno[(A/G)]re it

Child, I have walked on the glass the broke
While I stayed and I prayed on my knees in hope
I held my breath and I choked
Holding onto this rope
I gotta let go

Chorus:
YOU BETTER BELIEVE IT[(A/G)]
YOU BETTER BELIEVE IT[(A/G)]
A RAY OF LIGHT
FOUND IT?S [A/C#]WAY TO MY MIND
KNOT?S UNTIED
YOU B[(A/G)]ETTER BELIEVE IT

SOLO: (it begins like the lick 1, and then changes a bit..
but in the same scale, you can do it! – i’m keep trying!)

Solo chords
E E4 E A (A/G) E E7 (2x)

CHORUS (2x)

THEN: A B A/C# D A (A/G) E

A RAY OF LIGHT
FOUND IT?S [A/C#]WAY TO MY MIND
KNOT?S UNTIED[(A/G)]

(Riff 1 and Riff 2)
You better believe it….

NOTES: Riffs 1 and 2 (and some variations) are used a lot in this song.
Listen to the original song to identify when Nalle Colt plays it.

E7 throughout the song have to be made like that:


e|-------0-|
B|---0h3---|
G|---1-----|
D|---0-----|
A|---2-----|
E|---0-----|

20/03/2015

To play the most songs, including You Better Believe It by Vintage Trouble by ukulele, the most crucial basic ukulele chords to learn are C chord, D chord, G chord, and Em chord.
These set you up to play a a lot of songs, and each of them is easy to learn.